Oops, an error
Loading. Please wait.

Taxi Driver Bass Tab

version 1
version 1

Whole song

Interactive

13 views 1 this week
no commentswrite comment
1 2 3 4 5
3 more votes to show rating
add to favorites
launch autoscroll
font size
0
reset
guitar tuner
Autoscroll
slow
fast
+/-
esc
set tempo
stop
Help us to improve Ultimate-Guitar.com Take our survey!
×
Author
Difficulty
novice
------------------------------------------------------------------------------
                     Taxi Driver - Hanoi Rocks
------------------------------------------------------------------------------

Tabbed by: ChrisT

From the Album: Self Destruction Blues (1982)

Tuning: Standard

Intro (0:12)
G|----------------------------------------------------------------------|
D|o--------------------------------------------------------------------o|
A|o--------------------------------------------------------------------o|
E|---0-0-3-3-5-5-3-3-0-0-3-3-5-5-3-3-0-0-3-3-5-5-3-3-0-0-3-3-5-5-3-3----|

I’ll be a.....
G|----------------------------------------------------------------------|
D|----------------------------------------------------------------------|
A|----------------------------------------------------------------------|
E|---0-0-3-3-5-5-3-3-0-0-3-3-5-5-3-3-0-0-3-3-5-5-3-3-0-0-3-3-5-5-3-3----|

I’ll be a....
G|----------------------------------------------------------------------|
D|----------------------------------------------------------------------|
A|---0-0-3-3-5-5-3-3-0-0-3-3-5-5-3-3------------------------------------|
E|-----------------------------------0-0-3-3-5-5-3-3-0-0-3-3-5-5-3-3----|

Just call on.....
G|----------------------------------------------------------------------|
D|----------------------------------------------------------------------|
A|---2-2-2-2-2-2-1-1-0-------------------------------0h2-2-2-2-2--------|
E|-------------------------------3---0-0-3-3-5-5-3-3-------------3-2----|

I’ll be a....
G|----------------------------------------------------------------------|
D|----------------------------------------------------------------------|
A|----------------------------------------------------------------------|
E|---0-0-3-3-5-5-3-3-0-0-3-3-5-5-3-3-0-0-3-3-5-5-3-3-0-0-3-3-5-5-3-3----|

I’ll be a.....
G|----------------------------------------------------------------------|
D|----------------------------------------------------------------------|
A|---0-0-3-3-5-5-3-3-0-0-3-3-5-5-3-3------------------------------------|
E|-----------------------------------0-0-3-3-5-5-3-3-0-0-3-3-5-5-3-3----|

Just call on.....
G|----------------------------------------------------------------------|
D|----------------------------------------------------------------------|
A|---2-2-2-2-2-2-1-1-0--------------------------------------------------|
E|-------------------------------3---0-0-3-3-5-5-3-3-0-0-2-2-3-3-4-4----|

Call me on....
G|----------------------------------------------------------------------|
D|----------------------------------------------------------------------|
A|-----------------------------------7----------------------------------|
E|---4h5-5-5-4h5-5-5-4h5-5-5-4h5-5-5------------------------------------|

Sometimes you...
G|------------------------------------------------------------------------------------------------------|
D|------------------------------------------------------------------------------------------------------|
A|-----------------------------------2-2-2-2-2-2-2-2-2-------------------------------0h2-2-2-2-2--------|
E|---4h5-5-5-4h5-5-5-4h5-5-5-4h5-5-5-----------------------------3---0-0-3-3-5-5-3-3-------------3-2----|

G|----------------------------------------------------------------------|
D|o--------------------------------------------------------------------o|
A|o--------------------------------------------------------------------o|
E|---0-0-3-3-5-5-3-3-0-0-3-3-5-5-3-3-0-0-3-3-5-5-3-3-0-0-3-3-5-5-3-3----|

I’ll be a....
G|----------------------------------------------------------------------|
D|----------------------------------------------------------------------|
A|----------------------------------------------------------------------|
E|---0-0-3-3-5-5-3-3-0-0-3-3-5-5-3-3-0-0-3-3-5-5-3-3-0-0-3-3-5-5-3-3----|

I’ll be a.....
G|----------------------------------------------------------------------|
D|----------------------------------------------------------------------|
A|---0-0-3-3-5-5-3-3-0-0-3-3-5-5-3-3------------------------------------|
E|-----------------------------------0-0-3-3-5-5-3-3-0-0-3-3-5-5-3-3----|

Just call....
G|----------------------------------------------------------------------|
D|----------------------------------------------------------------------|
A|---2-2-2-2-2-2-1-1-0--------------------------------------------------|
E|-------------------------------3---0-0-3-3-5-5-3-3-0-0-2-2-3-3-4-4----|

Call me....
G|----------------------------------------------------------------------|
D|----------------------------------------------------------------------|
A|-----------------------------------7----------------------------------|
E|---4h5-5-5-4h5-5-5-4h5-5-5-4h5-5-5------------------------------------|

Sometimes.....
G|------------------------------------------------------------------------------------------------------|
D|------------------------------------------------------------------------------------------------------|
A|-----------------------------------2-2-2-2-2-2-2-2-2-------------------------------0h2-2-2-2-2--------|
E|---4h5-5-5-4h5-5-5-4h5-5-5-4h5-5-5-----------------------------3---0-0-3-3-5-5-3-3-------------3-2----|

Guitar solo
G|----------------------------------------------------------------------|
D|----------------------------------------------------------------------|
A|----------------------------------------------------------------------|
E|---0-0-3-3-5-5-3-3-0-0-3-3-5-5-3-3-0-0-3-3-5-5-3-3-0-0-3-3-5-5-3-3----|

G|----------------------------------------------------------------------|
D|----------------------------------------------------------------------|
A|---0-0-3-3-5-5-3-3-0-0-3-3-5-5-3-3------------------------------------|
E|-----------------------------------0-0-3-3-5-5-3-3-0-0-3-3-5-5-3-3----|

G|----------------------------------------------------------------------|
D|----------------------------------------------------------------------|
A|---2-2-2-2-2-2-1-1-0-------------------------------0h2-2-2-2-2--------|
E|-------------------------------3---0-0-3-3-5-5-3-3-------------3-2----|

G|----------------------------------------------------------------------|
D|----------------------------------------------------------------------|
A|----------------------------------------------------------------------|
E|---0-0-3-3-5-5-3-3-0-0-3-3-5-5-3-3-0-0-3-3-5-5-3-3-0-0-3-3-5-5-3-3----|

G|----------------------------------------------------------------------|
D|----------------------------------------------------------------------|
A|---0-0-3-3-5-5-3-3-0-0-3-3-5-5-3-3------------------------------------|
E|-----------------------------------0-0-3-3-5-5-3-3-0-0-3-3-5-5-3-3----|

G|----------------------------------------------------------------------|
D|----------------------------------------------------------------------|
A|---2-2-2-2-2-2-1-1-0--------------------------------------------------|
E|-------------------------------3---0-0-3-3-5-5-3-3-0-0-2-2-3-3-4-4----|

Just call...
G|----------------------------------------------------------------------|
D|----------------------------------------------------------------------|
A|-----------------------------------7----------------------------------|
E|---4h5-5-5-4h5-5-5-4h5-5-5-4h5-5-5------------------------------------|

Sometimes....
G|----------------------------------------------------------------------|
D|----------------------------------------------------------------------|
A|-----------------------------------2-2-2-2-2-2-2-2-2------------------|
E|---4h5-5-5-4h5-5-5-4h5-5-5-4h5-5-5-----------------------------7-6----|

Call me...
G|----------------------------------------------------------------------|
D|----------------------------------------------------------------------|
A|-----------------------------------7----------------------------------|
E|---4h5-5-5-4h5-5-5-4h5-5-5-4h5-5-5------------------------------------|

Sometimes.....
G|------------------------------------------------------------------------------------------------------|
D|------------------------------------------------------------------------------------------------------|
A|-----------------------------------2-2-2-2-2-2-2-2-2-------------------------------0h2-2-2-2-2--------|
E|---4h5-5-5-4h5-5-5-4h5-5-5-4h5-5-5-----------------------------10\-0-0-3-3-5-5-3-3-------------3-2----|

I’ll be a....
G|----------------------------------------------------------------------------|
D|----------------------------------------------------------------------------|
A|-------------------0h2-2-2-2-2---------------------0h2-2-2-2-2--------------|
E|---0-0-3-3-5-5-3-3-------------3-2-0-0-3-3-5-5-3-3-------------3--2--0------|
Suggest correction
Give kudos to tab author, rate the tab!
1 2 3 4 5
comments
print report bad tab
guest
You may want to rate the tab now too:
select rating
Wanna post a correction for this tab? Suggest correction