Oops, an error
Loading. Please wait.

Duduk Of The North Tab

version 2
version 2

Solo

2,244 views 9 this week
no commentswrite comment
1 2 3 4 5
excellent!
x 5
add to favorites
launch autoscroll
font size
0
reset
how to read this tab
guitar tuner
Autoscroll
slow
fast
+/-
esc
set tempo
stop
Help us to improve Ultimate-Guitar.com Take our survey!
×
Contributor
Velico 34
Great little classical guitar piece.  I feel this is more correct than the other
version posted.  Standard tuning.


e|---------------------------------------------------|
B|---------------------------------------------------|
G|---5p4-5---5p4h5h7-5p4h5-7-4---4-----4h5p4-------4-|
D|-----------------------------7-------------7-5h7---|
A|-5-------7-------------------------7---------------|
E|---------------------------------------------------|


e|--------------------------------------------------------------|
B|--------------------------------------------------------------|
G|---4-5p4h5---5p4h5---5p4h5h7-5p4h5-7/4----4-----4h5p4-------4-|
D|-5--------------------------------------7-------------7-5h7---|
A|-----------7-------7--------------------------7---------------|
E|--------------------------------------------------------------|


e|-----------------------------------------------|
B|-----------------------------------------------|
G|---4-------------------4-----------------------|
D|-5---7-5-3-5-7---3-5-7---7-5-3-------3---------|
A|-------------------------------7-5-7-----7-5-3-|
E|-----------------------------------------------|


e|-------------------------------------------------------|
B|-------------------------------------------------------|
G|-------------------------------------------------------|
D|--------------0-2h3p2p0--4/6--7h9p7p6h7---7-9h10p9p7h9-|
A|-2h3p2p0h2--3---------------------------7--------------|
E|-------------------------------------------------------|


e|------------------------------------------------------------------|
B|----------------------------------------------------2p1h2---------|
G|---7----------------------------------------------4-------0h3p2h3-|
D|-----10-9-10---10-9-10---7-10-9h10p9p7----7-9/--2-----------------|
A|-7-----------7-------------------------10-------------------------|
E|------------------------------------------------------------------|


e|---------------------------------------------------------------|
B|---------------------------------------------------------------|
G|---------------------------------------------------------------|
D|---2h3p2p0h2-3p2p0h2-3p2p0h2-3p2p0h2-3p2p0h2-3p2p0h2-2-2-2-2-2-|
A|-0-------------------------------------------------------------|
E|---------------------------------------------------------------|


e|-------------------------------------------------------------|
B|-6-5-6---6-5-6----6-5-6-8-6-5-6---8-5---5------5h6p5-------5-|
G|--------------------------------------7--------------7-5h7---|
D|-------7--------7----------------------------7---------------|
A|-------------------------------------------------------------|
E|-------------------------------------------------------------|


e|---------------------5-------------------------------------------|
B|---5-6p5h6---6p5h6-----6-5-6-8-6-5-6---8-5---5-----5h6p5-------5-|
G|-------------------------------------------7-------------7-5h7---|
D|-7---------7-------------------------------------7---------------|
A|-----------------------------------------------------------------|
E|-----------------------------------------------------------------|


e|------------------------------------------------|
B|---5-------------------5------------------------|
G|-5---7-5---5-7-----5-7---7-5--------------------|
D|---------8-------8-----------8-0-5-7-0-8--7-5/3-|
A|------------------------------------------------|
E|------------------------------------------------|


e|--------------------------------------------------------------------|
B|-------------------------------------5/8----------------------------|
G|---------------------------------5h7-----10-9-10---7-9h10p9p7h9-----|
D|-2h3p2p0h2-3/5-7-7h8p7p5h7---7h8-----------------7------------------|
A|---------------------------5----------------------------------------|
E|--------------------------------------------------------------------|


e|--------------------------------------------------------------|
B|---8----------------------------------------------------------|
G|-----10p9h10---10p9h10-7-10-9h10p9p7----7-9---9-7p6h7---------|
D|-7-----------7-----------------------10-----7---------5-8p7h8-|
A|--------------------------------------------------------------|
E|--------------------------------------------------------------|


e|--------------------------------------------------------------13p12h13-|
B|-----------------------------------------------6p5h6-------------------|
G|-----------------------------------------------------------------------|
D|---7h8p7p5---5-7-----7h8p7p5-------------------------------------------|
A|-5---------8-------5---------8--8-7-8p7p5------------------------------|
E|-----------------------------------------------------------------------|

Good luck!  I love this piece, it took a lot of work on my end, I hope you enjoy it :)
comments
print report bad tab
I want to post or [tab]
guest
You may want to rate the tab now too:
select rating
Please do not post tabs as comments. Select "correction" instead!