Oops, an error
Loading. Please wait.

Hes A Pirate Tab

version 1
version 1

Intro

Whole song

Interactive

16,988 views 6 this week
2 commentsread comments
1 2 3 4 5
1 last vote to show rating
add to favorites
launch autoscroll
font size
0
reset
how to read this tab
guitar tuner
Autoscroll
slow
fast
+/-
esc
set tempo
stop
Help us to improve Ultimate-Guitar.com Take our survey!
×
Author
Ok, this is my first tab. The beginning is like some of the other versions, but
 the ending is different.

  |-------------------------------P.M.-------------------------------|
E|------------------|------------------|------------------|----------|
B|------------------|------------------|------------------|-7--------|
G|------------------|------------------|------------------|-7--------|
D|------------------|------------------|------------------|----------|
A|-5--55--55--5555--|-5--55--55--5555--|-5--55--55--5555--|-5--------|
E|------------------|------------------|------------------|----------|

E|---------------------------------|----------------------------------|
B|-----------5-6-6-6-8-5-5---------|------------5-6-6-6-8-5-5---------|
G|---5-7-7-7---------------7-5-5-7-|----5-7-7-7---------------7-5-7---|
D|-7-------------------------------|--7-------------------------------|
A|---------------------------------|----------------------------------|
E|---------------------------------|----------------------------------|

E|-------------------5-6-6-5---5---|--------------5----|----------------||
B|-----------6-8-8-8---------8-----|----5-6-6-8--------|----6-5-5-6---5-||
G|---5-7-7-7---------------------7-|--7------------7---|--7---------7---||
D|-7-------------------------------|-------------------|----------------||
A|---------------------------------|-------------------|----------------||
E|---------------------------------|-------------------|----------------||

And that's all there is to it. Have fun!
Suggest correction
Give kudos to tab author, rate the tab!
1 2 3 4 5
comments
print report bad tab
2 comments total.
0 reply
tim mcgraw 10 Apr 12, 2008 08:38 PM

pretty damn good

0 reply
basimn95 10 Nov 27, 2009 10:44 AM

its wrong in the 2nd tab!!!!

Original (2nd tab G string 7-5-5-7)

E|---------------------------------|----------------------------------|
B|-----------5-6-6-6-8-5-5---------|------------5-6-6-6-8-5-5---------|
G|---5-7-7-7---------------7-5-5-7-|----5-7-7-7---------------7-5-7---|
D|-7-------------------------------|--7-------------------------------|
A|---------------------------------|----------------------------------|
E|---------------------------------|----------------------------------|


Corrected (2nd tab G string 7-5-7)
 E|---------------------------------|----------------------------------|
B|-----------5-6-6-6-8-5-5---------|------------5-6-6-6-8-5-5---------|
G|---5-7-7-7---------------7-5-7-|----5-7-7-7---------------7-5-7---|
D|-7-------------------------------|--7-------------------------------|
A|---------------------------------|----------------------------------|
E|---------------------------------|----------------------------------|

guest
You may want to rate the tab now too:
select rating
Wanna post a correction for this tab? Suggest correction