Oops, an error
Loading. Please wait.

Hoist The Colours tab

version 3
version 3

Whole song

  • Changed a few notes and took out slides that were unneeded and incorrect.

Interactive

361 views 6 this week
no commentswrite comment
1 2 3 4 5
2 more votes to show rating
add to favorites
×
Save as Personal and add changes to this tab that will be seen only by you. Learn more ›
×
You can save this tab as Personal to edit and correct it or add notes. All changes will be seen only by you. Learn more »
launch autoscroll
font size
0
reset
how to read this tab
guitar tuner
edit
Autoscroll
slow
fast
+/-
esc
set tempo
stop
Author
Difficulty
About this tab version
Changed a few notes and took out slides that were unneeded and incorrect. Was this info helpful? Yes No
"Hoist the Colours"
Composed By Hans Zimmer
For Pirates of the Caribbean: At World's End


notes touching are rapid strums
Opining and Solo 
----------------------------------------------1--1--1--3--1--0--------|
-------1--1--1--1-----1--1--2--1--1-----------------------------------|
----------------------------------------------------------------------|
----3-------------------------------3------3--------------------------|
----------------------------------------------------------------------|
----------------------------------------------------------------------|

--------3--2--3-3--5--3--0-------------3-4--3-----------1-------------|
--------------------------1--1-------------------1--4-----------------|
----------------------------------------------------------------------|
-----3----------------------------------------------------------------|
----------------------------------------------------------------------|
----------------------------------------------------------------------|


Group Vocals:

----------------------------------------------------------------------|
----------------------------------------------------------------------|
---------------------------------1-0-----0----------------------------|
------3------3---3----------3--3--------3-----------------------------|
--------3----------3-3------------------------------------------------|
----------------------------------------------------------------------|


----------------------------------------------------------------------|
----------------------------------------------------------------------|
-----0------0---0-------------0---1-----------------------------------|
------------------------------------------1---3-----------------------|
--------3----------3---3--------------3-------------------------------|
----------------------------------------------------------------------|




Solo
The King and his Men
Stole the Queen from her bed
And bound her in her bones
The Seas be ours and by the Powers
Where we will, we'll roam

Group
Yo, Ho, all hands
Hoist The Colours high
Heave, Ho, Thieves and Beggers
Never shall we Die!

Yo, Ho, all together
Hoist The Colours high
Heave, Ho, Thieves and Beggars
Never shall we Die!

Solo
Some men have died
And some are alive
Others sail on the sea
With keys to the cage
And the Devil to pay
We lay to Fiddler's Green!

The bell has been raised
From it's watery grave
Hear it's sepruchal tone
A call to all
Pay head the squall
Turn your sail towards home!

Group
Yo, Ho, all together
Hoist The Colours high
Heave, Ho, Thieves and Beggars
Never shall we Die!

            
            
Suggest correction
Creating personal tab
Creating personal tab
You can edit any tab online and save it as your Personal.

You can edit, replace or remove any tab part or add personal notes – all changes will be seen only by you.

Personal tabs can be accessed anytime from any device, even offline.
Learn more »
Give kudos to tab author, rate the tab!
1 2 3 4 5
comments
print report bad tab
guest
You may want to rate the tab now too:
select rating
Wanna post a correction for this tab? Suggest correction