Oops, an error
Loading. Please wait.

Homeland Tab

100 views 18 this week
no commentswrite comment
1 2 3 4 5
3 more votes to show rating
add to favorites
launch autoscroll
font size
0
reset
how to read this tab
guitar tuner
Autoscroll
slow
fast
+/-
esc
set tempo
stop
Help us to improve Ultimate-Guitar.com Take our survey!
×
Author
Difficulty
novice
[Intro]
e|-8-----------8-----------8-----------8-----------|
B|---8---8-------8-8---------8---8-------8---------|
G|-----5---5---------5-5-------5---5---------5-5---|
D|---------5-----------5-----------3-------5---3---|
A|---------3-----------3-----------3-----------3---|
E|-------------------------------------------------|

[Verse 1]
e|-----------------------|------------------------|------------------8-7-5-|-------------------|
B|-----------------------|---------8---8-10-8-6-8-|-8-10-8-6-8-------------|-------------------|
G|---5-7-9-7-5-4-2-------|---5-7-9---5------------|------------9-7-5-------|---5-7-9-9-7-5-7---|
D|-5---------------5-3-5-|-5----------------------|------------------------|-5-----------------|
A|-----------------------|------------------------|------------------------|-------------------|
E|-----------------------|------------------------|------------------------|-------------------|

[Verse 2]
e|-----------------------|------------------------|--------------------8-7-5-|-----------------|
B|-----------------------|---------8---8-10-8-6-8-|-8-10-8-6-8---------------|-----------------|
G|---5-7-9-7-5-4-2-------|---5-7-9---5------------|------------9-9-7-5-------|---5-7-9-9-7-5-7-|
D|-5---------------5-3-5-|-5----------------------|--------------------------|-5---------------|
A|-----------------------|------------------------|--------------------------|-----------------|
E|-----------------------|------------------------|--------------------------|-----------------|

[Verse 3]
e|-------------|-----------------|-------------------------------------------------------------|
B|-------------|---------------5-|---------------8---8-10----8-5-------------------------------|
G|---5-4-------|---5-4-5-5-7-----|---5-4---5-7-9---5-------------7-----------------------------|
D|-5-----7-5-2-|-5-----------5---|-5-----7---------------10------------------------------------|
A|-------------|-----------------|-------------------------------------------------------------|
E|-------------|-----------------|-------------------------------------------------------------|

[Verse 4]
e|-------------|-----------------|---------------------------------|---------------------------|
B|-------------|---------------5-|----------6-8-----8-10---10---12-|---10-12-13-12-10-8--------|
G|---5-4-------|---5-4-5-5-7-----|--5-4---5-----5-5------7----7----|-9------------------9-7-5--|
D|-5-----7-5-2-|-5-----------5---|-5----7--------------------------|---------------------------|
A|-------------|-----------------|---------------------------------|---------------------------|
E|-------------|-----------------|---------------------------------|---------------------------|

e|-----------------------------|--------------------|-------------------------|
B|---10-12-13-12-10-10-12-8-10-|---10-12-13-12-10-8-|-----------5-6-5---------|
G|-9---------------------------|-9------------------|-9-7-5-5-7-------7-5-7---|
D|-----------------------------|--------------------|-------------------------|
A|-----------------------------|--------------------|-------------------------|
E|-----------------------------|--------------------|-------------------------|

[Verse 5]
e|-------------|-----------------|-------------------------------------------------------------|
B|-------------|-------------5---|-----------6-8-----8-10-----5--------------------------------|
G|---5-4-------|---5-4-5-5-7-----|---5-4---5-----5-5------5-7---7------------------------------|
D|-5-----7-5-2-|-5---------------|-5-----7-----------------------------------------------------|
A|-------------|-----------------|-------------------------------------------------------------|
E|-------------|-----------------|-------------------------------------------------------------|

[Verse 6]
e|---------------------|-------------------------11----|-----------------------11-10-8-8-------|
B|---6-8-6-------------|-----6-8-11---11-13-11-9----11-|-11-13-11-9-11-------------------------|
G|-8-------8-7-5-3-1-3-|---8--------8------------------|---------------12-10-8-----------------|
D|---------------------|-8-----------------------------|---------------------------------------|
A|---------------------|-------------------------------|---------------------------------------|
E|---------------------|-------------------------------|---------------------------------------|

e|----------------------------------|
B|-13-11-11---8-8------8------------|
G|----------------10-----10---8-8---|
D|----------------------------------|
A|----------------------------------|
E|----------------------------------|
Suggest correction
Give kudos to tab author, rate the tab!
1 2 3 4 5
comments
print report bad tab
guest
You may want to rate the tab now too:
select rating
Wanna post a correction for this tab? Suggest correction