Oops, an error
Loading. Please wait.

Jack Sparrow Tab

59,681 views 153 this week
6 commentsread comments
1 2 3 4 5
x 31
add to favorites
launch autoscroll
font size
0
reset
how to read this tab
guitar tuner
×
Best way to learn
"Jack Sparrow"
Autoscroll
slow
fast
+/-
esc
set tempo
stop
Author
Difficulty
novice
Tuning: Standard

[Chords]
Dm Bb Dm G
Bb Dm Gm A
Dm7 Dm Dm7 Dm
Gm A Dm G
Dm G

[Intro]
e|-------------------------------------|
B|-------------------------------------|
G|----2---------2---------2---------2--|
D|-0---------0---------0---------0-----|
A|--------0-------------------0--------|
E|-------------------------------------|

[Verse]
       Dm      Bb      Dm      G
e|--------------------------------|
B|------------------1-2-3----1-0--|
G|----------0-2-3----------2------|
D|--0-2-3-------------------------|
A|--------------------------------|
E|--------------------------------|

        Bb     Dm      Gm         A
e|-----------------------------------|
B|-----------------------------------|
G|----------0-1-2-------0---0-3-0-2--|
D|--0-2-3----------0-3---------------|
A|-----------------------------------|
E|-----------------------------------|

         Dm7     Dm       Dm7      Dm
e|-------------------------------------|
B|-----0-1---0-3--------0-1---1-0------|
G|--2------------2----2-----------0-2--|
D|-------------------------------------|
A|-------------------------------------|
E|-------------------------------------|

        Gm        A      Dm   G
e|-------------------------------|
B|-------------------------------|
G|------0---0-3-0-2--------------|
D|--0-3---------------3-2-0------|
A|--------------------------3-2--|
E|-------------------------------|

         Dm      G
e|------------------|
B|------------------|
G|------------------|
D|-------0----------|
A|--3-4------0-3-2--|
E|------------------|

[Outro]
e|-----------------|
B|--------------3--|
G|-----------------|
D|----0------------|
A|--0--------------|
E|-----------------|
Suggest correction
comments
print report bad tab
6 comments total. Showing first comments.
0 reply
VsideVince 10 Oct 28, 2007 05:48 AM

good stuff man

0 reply
Bishop1 10 Dec 27, 2007 04:23 PM

Thanks for posting the tab mate. I haven't yet tried this tab, but I converted it to notes so I can play it on my
mandolin.

0 reply
Bishop1 10 Dec 28, 2007 10:21 AM

P.S. I tried the tab, its awesome! Thanks again.

guest
You may want to rate the tab now too:
select rating
Wanna post a correction for this tab? Suggest correction