Oops, an error
Loading. Please wait.

Nyah Tab

version 1
version 1

Whole song

Interactive

1,402,203 views 30 this week
2 commentsread comments
1 2 3 4 5
x 6
add to favorites
launch autoscroll
font size
0
reset
how to read this tab
guitar tuner
×
Best way to learn
"Nyah"
Autoscroll
slow
fast
+/-
esc
set tempo
stop
Author/Artist: Hans Zimmer feat. Heitor Pereira
Title: Nyah
Album: M:I-2 OST
Transcribed by: Jan Nosek
Email: nosekjan@volny.cz

This song is very nice, but quite hard to play and you´ll have to listen to it
a few times to catch out the rhytm. I recommend to play it with nails on nylon
strings, cos on steel strings ot doesn´t have that spanish accent.
If you´ll have any corrections, just feel free to e-mail me.
(It sounds better on two guitars one for chords and one for the solo)

The first chord is F# and then you strum F# and Bm

e|------------------------------------------------------------------------------|
B|---3--0h2-----0-2h3-5--5-5--8-8-10p8p7-7-3-0----------------------------------|
G|------------------------------------------------------------------------------|
D|-4----------------------------------------------------------------------------|
A|------------------------------------------------------------------------------|
E|------------------------------------------------------------------------------|


e|-----------------7-6----------------------------------------------------------|
B|---3--0h2----------------0-2h3-5-3p2-5-3-2-0----------------------------------|
G|-------------(7)--------------------------------------------------------------|
D|-4----------------------------------------------------------------------------|
A|---------------------------------------------------5/7-5-4-2------------------|
E|------------------------------------------------------------------------------|


e|-------------0-7h9------------------------------------------------------------|
B|---3--0h2----0---------0-2h3-5--5-5-5-7-8-8-7-3-0-----------------------------|
G|------------------------------------------------------------------------------|
D|-4----------------------------------------------------------------------------|
A|------------------------------------------------------------------------------|
E|------------------------------------------------------------------------------|


e|------------------------------------------------------------------------------|
B|---3--0h2---2-3-5---0-2h3-5-3p2-5-3-2-0---------------------------------------|
G|------------3-4-6-------------------------------------------------------------|
D|-4-------------------------------------------4h5p4-2p0------------------------|
A|--------------------------------------------------------4p2-------------------|
E|------------------------------------------------------------------------------|


e|-9--9-9-9-7-6-7/9--10-10-10-9-7-9h10--9-9-9-7-6-7/9--7-7-7-7-6-9-6h7----------|
B|-11---------------------------------------------------------------------------|
G|-11---------------------------------------------------------------------------|
D|------------------------------------------------------------------------------|
A|------------------------------------------------------------------------------|
E|------------------------------------------------------------------------------|


e|------------------------------------------------------------------------------|
B|---3--0h2---2-3-5---0-2h3-5-3p2-5-3-2-0---------------------------------------|
G|------------3-4-6-------------------------------------------------------------|
D|-4----------------------------------------------------------------------------|
A|------------------------------------------------------------------------------|
E|------------------------------------------------------------------------------|


e|-0-5-2-3---3p2h3----3/5-3-3-5p3-2---------------------------------------------|
B|-0----------------0---------------3-0-----------------------------------------|
G|------------------------------------------------------------------------------|
D|------------------------------------------------------------------------------|
A|------------------------------------------------------------------------------|
E|------------------------------------------------------------------------------|


e|-0-5-2-3---3p2h3-------5p3p2p0-0-2--------------------------------------------|
B|-0----------------------------------------------------------------------------|
G|------------------------------------------------------------------------------|
D|------------------------------------------------------------------------------|
A|------------------------------------------------------------------------------|
E|------------------------------------------------------------------------------|


e|-------------------------------------3/7-2-3----3-5p3p2-0-2-7-9-4-6p5p3-6-2---|
B|---3--0-1--7p3-1--2-3-5--3-5-5/7-3--------------------------------------------|
G|------------------3-4-6-------------------------------------------------------|
D|-4----------------------------------------------------------------------------|
A|------------------------------------------------------------------------------|
E|------------------------------------------------------------------------------|


e|-12/14-14-14-12-12-10---6-6-7-9p7p6-9-----2-2-3-5p3p2-3--3\2-3p0-3\2-3p0-2----|
B|---------------------------------------------------------3\2-3p0-3\2-3p0-2----|
G|------------------------------------------------------------------------------|
D|------------------------------------------------------------------------------|
A|------------------------------------------------------------------------------|
E|------------------------------------------------------------------------------|


e|----------------------------7-9-10-12-10p9-12-10p9-10\7-----------------------|
B|-0-2-3-5-3p2-5-3p2-3-0--------------------------------------------------------|
G|------------------------------------------------------------------------------|
D|------------------------------------------------------------------------------|
A|------------------------------------------------------------------------------|
E|------------------------------------------------------------------------------|

   F#                 F                   F#               Bm
e|-9--9-9-9-7-6-7/9---10-10-10-9-7-9h10---9--9-9-7-6-7/9---7-7-7-7-6-9-6h7------|
B|-11-----------------12------------------11---------------7--------------------|
G|-11-----------------12------------------11---------------7--------------------|
D|-11-----------------12------------------11---------------9--------------------|
A|-9------------------10------------------9----------------9--------------------|
E|-9------------------10------------------9----------------7--------------------|

   F#                 F                   F#               Bm
e|-9--9-9-9-7-6-7/9---10-10-10-9-7-9h10---9--9-9-7-6-7/9---7-7-7-7-6-9-6h7------|
B|-11-----------------12------------------11---------------7--------------------|
G|-11-----------------12------------------11---------------7--------------------|
D|-11-----------------12------------------11---------------9--------------------|
A|-9------------------10------------------9----------------9--------------------|
E|-9------------------10------------------9----------------7--------------------|

   F#                 F                   F#               Bm
e|-9--9-9-9-7-6-7/9---10-10-10-9-7-9h10---9--9-9-7-6-7/9---7-7-7-7-6-9-6h7------|
B|-11-----------------12------------------11---------------7--------------------|
G|-11-----------------12------------------11---------------7--------------------|
D|-11-----------------12------------------11---------------9--------------------|
A|-9------------------10------------------9----------------9--------------------|
E|-9------------------10------------------9----------------7--------------------|


e|------------------------------------------------------------------------------|
B|---3--0h2-----0-2h3-5--5-5--8-8-10p8p7-7-3-0----------------------------------|
G|------------------------------------------------------------------------------|
D|-4----------------------------------------------------------------------------|
A|------------------------------------------------------------------------------|
E|------------------------------------------------------------------------------|


e|-----------------7-6----------------------------------------------------------|
B|---3--0h2----------------0-2h3-5-3p2-5-3p2-0----------------------------------|
G|-------------(7)--------------------------------------------------------------|
D|-4----------------------------------------------------------------------------|
A|---------------------------------------------------5/7-5-4-2------------------|
E|------------------------------------------------------------------------------|


e|------------------------------------------------------------------------------|
B|------------------------------------------------------------------------------|
G|------------------------------------------------------------------------------|
D|------------------------------------------------------------------------------|
A|----------------------9/10-~10-9-------------------4h5-1----------------------|
E|-4-7-4h6--6-7-9--9-9--------------10-7----4-7-4h6-----------6-7-9p7-6-9p7-6-4-|
Suggest correction
comments
print report bad tab
2 comments total.
0 reply
Windmill 10 Jan 26, 2005 07:00 PM

The F's on the Strumming part should be G's, but the tab is correct. Great work, whoever did it. :)

0 reply
slugs 237 Jan 29, 2005 07:00 PM

Yes, very nice Tab!
I was sure that this song was tabbed right,
all the beginners would not listen to that kind of song ;)

guest
You may want to rate the tab now too:
select rating
Wanna post a correction for this tab? Suggest correction