Oops, an error
Loading. Please wait.

On Stranger Tides - Angelica tab

version 1
version 1

Whole song

Interactive

1,168 views 6 this week
no commentswrite comment
1 2 3 4 5
3 more votes to show rating
add to favorites
×
Save as Personal and add changes to this tab that will be seen only by you. Learn more ›
×
You can save this tab as Personal to edit and correct it or add notes. All changes will be seen only by you. Learn more »
launch autoscroll
font size
0
reset
how to read this tab
guitar tuner
edit
Autoscroll
slow
fast
+/-
esc
set tempo
stop
Author
Difficulty
On Stranger Tides - Angelica
This was tabbed from piano transcription of the soundtrack. Unfortunately there was no solo. 


Gtr I (E A D G B E) - 'Untitled'
Gtr II (D A D G B E) - 'Untitled'

  Q=110
 1/8     4/4
  Gtr I
  E       W                   W                   W
|-------|-------------------|-------------------|------------------|
|-------|-------------------|-------------------|------------------|
|-------|-------------------|-------------------|------------------|
|-------|-------------------|-------------------|------------------|
|-------|-------------------|-------------------|------------------|
|-------|-------------------|-------------------|------------------|
|
| Gtr II
| |-3-|
| S S S   E E E S S E E E E   S S E E E E E E E   E E E E E E E E
|-------|-------------------|-------------------|------------------|
|-------|-------------------|-------------------|------------------|
|-------|-------------------|-------------------|------------------|
|-3-3-3-|-3-2---3-3-2---3---|-3-3-2---3-2---3---|-3-2---3-2---3----|
|-0-0-0-|-0-0---0-0-0---0---|-0-0-0---0-0---0---|-2-2---2-2---2----|
|-------|-------------------|-------------------|-2-2---2-2---2----|


  W                     W                     W
|---------------------|---------------------|-----------------|
|---------------------|---------------------|-----------------|
|---------------------|---------------------|-----------------|
|---------------------|---------------------|-----------------|
|---------------------|---------------------|-----------------|
|---------------------|---------------------|-----------------|
|
|               |-3-|                 |-3-|
| E E E E E E E S S S   E E E E E E E S S S   E E E E E E E E
|---------------------|---------------------|-----------------|
|---------------------|---------------------|-----------------|
|---------------------|---------------------|-----------------|
|-3-2---3-2---3-2-2-2-|-3-2---3-2---3-3-3-3-|-3-2---3-2---3---|
|-2-2---2-2---2-0-0-0-|-0-0---0-0---0-0-0-0-|-0-0---0-0---0---|
|-2-2---2-2---2-------|---------------------|-----------------|


                              |-3-|
  W                 Q   E S S Q   E +E  S S
|-----------------|-------------------------|
|-----------------|-------------------------|
|-----------------|---------------------2-4-|
|-----------------|-------3-2-1---2-(2)-----|
|-----------------|-------------------------|
|-----------------|-------------------------|
|
| E E E E E E E E   E E E E   E E    E  E
|-----------------|-------------------------|
|-----------------|-------------------------|
|-----------------|-------------------------|
|-3-2---3-2---3---|-3-2---------------------|
|-2-2---2-2---2---|-2-2---------------------|
|-2-2---2-2---2---|-2-2---2---2------2------|


                                |-3-|
  W                 +Q    E S S Q   E +E  S S
|-----------------|---------------------------|
|-----------------|---------------------------|
|-5---------------|-(5)-----------------------|
|-----------------|---------3-2-1---2-(2)-5-4-|
|-----------------|---------------------------|
|-----------------|---------------------------|
|
| E E E E E E E E    E  E E E   E E    E  E
|-----------------|---------------------------|
|-----------------|---------------------------|
|-----------------|---------------------------|
|-3-2---3-2---3---|--3--2---------------------|
|-0-0---0-0---0---|--0--0---0---0------0------|
|-----------------|---------------------------|


                             |-3-| |-3-|
  Q.     E H         +Q    E S S S Q   E +E  S S   Q.     S S H
|------------------|-----------------------------|---------------------|
|------------------|-----------------------------|---------------------|
|------------------|---------------------------0-|-2-------------------|
|-3------2-2-------|-(2)---------2-3---2-(2)-3---|---------------------|
|------------------|-----------3-----------------|--------5-4-5--------|
|------------------|-----------------------------|---------------------|
|
| E  E E E E E E E    E  E E E     E E    E  E     E  E E E   E E E E
|------------------|-----------------------------|---------------------|
|------------------|-----------------------------|---------------------|
|------------------|-----------------------------|---------------------|
|------------------|--3--2-----------------------|---------------------|
|-0--0---0-0---0---|--0--0---0-----0------0------|-0--0---0---0---0----|
|------------------|-----------------------------|-0--0---0---0---0----|


          |-3-|                     |--3--| |--3--|               |3|
  +Q    E S S S Q   E S S   H       E E   E E E   E   S S E E S S Q E +E  S S
|-------------------------|-------------------------|---------1-0---0-(0)-5-7--|
|-------------------------|---------6-5---3---------|-------------4------------|
|-------------2-4---2-----|-----------------4-1-----|--------------------------|
|---------0-3---------3-0-|-2---------------------3-|-2-2-2--------------------|
|-(5)---------------------|-------------------------|--------------------------|
|-------------------------|-------------------------|--------------------------|
|
|  E  E E E     E E E E     E E E E E   E   E   E     S S E Q     H
|-------------------------|-------------------------|--------------------------|
|-------------------------|-------------------------|--------------------------|
|-------------------------|-------------------------|--------------------------|
|-------------------------|-------------------------|-2-2-2--------------------|
|--0--0---0-----0---0-----|-0-0---0-0-------0-------|-2-2-2--------------------|
|--0--0---0-----0---0-----|-0-0---0-0-------0-------|-2-2-2--------------------|


                                        |-3-|
  Q.      S  S  Q.     S S   Q.     S S Q   E +E  S S   Q.     E H
|-8------13-11-12------8-4-|-5--------------------3-2-|-1------0-0--------|
|--------------------------|--------6-5-4---5-(5)-----|-------------------|
|--------------------------|--------------------------|-------------------|
|--------------------------|--------------------------|-------------------|
|--------------------------|--------------------------|-------------------|
|--------------------------|--------------------------|-------------------|
|
| E  E E  E     E  E E E     E  E E E   E E    E  E     E  E E E E E E E
|--------------------------|--------------------------|-------------------|
|--------------------------|--------------------------|-------------------|
|--------------------------|--------------------------|-------------------|
|-3--2----3-----2----3-----|-3--2---3---2------3------|-3--2---3-2---3----|
|-0--0----0-----0----0-----|-0--0---0---0------0------|-0--0---0-0---0----|
|--------------------------|--------------------------|-------------------|


  +Q      Q   S S S S S S S S
|-(0)---------1-0-------0-1-3-|
|-----------------3-2-3-------|
|-----------------------------|
|-----------------------------|
|-----------------------------|
|-----------------------------|
|
|  S  S E E E E   E   E   E
|-----------------------------|
|-----------------------------|
|-----------------------------|
|--2--2-2---3-2-------3-------|
|--0--0-0---0-0-------0-------|
|-----------------------------|


                                  |-3-|
  Q.     S S E E S S S S   Q.     S S S E.   T T E S S
|-5----------------------|------------5-7----5-7-5-----|
|--------3-2-3-------1-2-|-3--------6--------------6---|
|--------------2-3-2-----|--------7------------------7-|
|------------------------|-----------------------------|
|------------------------|-----------------------------|
|------------------------|-----------------------------|
|
| E  E E E   E E E   E     E  E E E     E  E     E E
|------------------------|-----------------------------|
|------------------------|-----------------------------|
|------------------------|-----------------------------|
|------------------------|-----------------------------|
|-0--0---0---0---0-------|-0--0---0-----0--------0-----|
|-0--0---0---0---0-------|-0--0---0-----0--------0-----|


           |------6-------|  |------6------|
  H        S  S  S  S  S  S  S  S  S  S S  S   E S S S S E S S S S S  S E
|---------13-12-10---------------------------|---6---7---8-----9-----10---|
|-5----------------13-12-10-12-10------------|-5---6---7---8-8---8-9----9-|
|---------------------------------12-10-9----|----------------------------|
|-----------------------------------------12-|----------------------------|
|--------------------------------------------|----------------------------|
|--------------------------------------------|----------------------------|
|
| E E E E  E        E        E        E        E E   Q     E   E   Q
|--------------------------------------------|----------------------------|
|--------------------------------------------|----------------------------|
|--------------------------------------------|----------------------------|
|-3-2---3--2-----------------3---------------|-------------2--------------|
|-2-2---2--2-----------------2---------------|-------------2--------------|
|-2-2---2--2-----------------2---------------|-2-----------2--------------|


    Q.     E +Q    Q    Q.     E +Q    S S E
||--5------4-(4)---3--|-1------0-(0)-----0-1-|
||o-------------------|----------------3-----|
||--------------------|----------------------|
||--------------------|----------------------|
||o-------------------|----------------------|
||--------------------|----------------------|
|
|   E  E E E  E  E Q    E  E E E  E  E Q
||--------------------|----------------------|
||o-------------------|----------------------|
||--------------------|----------------------|
||--3--2---3--2----3--|-3--2---3--2----3-----|
||o-0--0---0--0----0--|-0--0---0--0----0-----|
||--------------------|----------------------|


  E E E E E E E E   E E E E E E E E
|-0-----1-----0---|-0-----1-----0----||
|---0-----0-----0-|---0-----0-----0-o||
|-----1-----1-----|-----1-----1------||
|-----------------|------------------||
|-----------------|-----------------o||
|-----------------|------------------||
|
| Q   E E Q   Q     Q   E E Q   Q
|-----------------|------------------||
|-----------------|-----------------o||
|-----------------|------------------||
|-----------------|------------------||
|-2-----2-----2---|-2-----3-----2---o||
|-2-----2-----2---|-2-----2-----2----||


     E S  S S  S  E S  S S  S  Q     E S  S S  S  E S  S S  S  Q
||----------8-12-11------8-13-12--|---------8-12-11------8-13-12---|
||o-10---10-----------10----------|------10-----------10-----------|
||-----9------------9-------------|-10-9------------9--------------|
||--------------------------------|--------------------------------|
||o-------------------------------|--------------------------------|
||--------------------------------|--------------------------------|
|
|    E E    E     E E    E     Q     E E    E     E E    E     Q
||--------------------------------|--------------------------------|
||o-------------------------------|--------------------------------|
||--------------------------------|--------------------------------|
||---3-2----------3-2----------3--|--3-2----------3-2----------3---|
||o--0-0----------0-0----------0--|--0-0----------0-0----------0---|
||--------------------------------|--------------------------------|


                      1.                 2.
  E E E E E E S S E   E E E E E E Q      E E E E E E E S S
|-5-----4-----3-1---|-1-----0---------||-1-----0---------0-|
|---0-----0---------|---0-----0---1--o||---0-----0---1-3---|
|-----1-----1-----1-|-----1-----1-----||-----1-----1-------|
|-------------------|-----------------||-------------------|
|-------------------|----------------o||-------------------|
|-------------------|-----------------||-------------------|
|
| Q   E E Q   Q       Q   E E Q   Q      Q   E E Q   E S S
|-------------------|-----------------||-------------------|
|-------------------|----------------o||-------------------|
|-------------------|-----------------||-------------------|
|-------------------|-----------------||-------------------|
|-2-----2-----2-----|-2-----3-----2--o||-2-----3-----3-0-0-|
|-2-----2-----2-----|-2-----2-----2---||-2-----2-----2-0-0-|


  S S E E S S E E E S S   E E E E E E E S S   E E E E E E E S S
|-1-0-------0-1---1-0-0-|-1-1---0-------1-1-|-1-0---1-0-----1-1--|
|-----3---3-------------|---------3-----3-3-|-3-3---3-3-----3-3--|
|-----------------------|-------------------|--------------------|
|-----------------------|-------------------|--------------------|
|-----------------------|-------------------|--------------------|
|-----------------------|-------------------|--------------------|
|
| E   E E E   E E E S S   E E E E E E E S S   E E E E E E E S S
|-----------------------|-------------------|--------------------|
|-----------------------|-------------------|--------------------|
|-----------------------|-------------------|--------------------|
|-----------------------|-------------------|--------------------|
|-0-----0-----0---0-0-0-|-0---0---0---0-2-2-|-2---2---2---2-2-2--|
|-0-----0-----0---0-0-0-|-0---0---0---0-2-2-|-2---2---2---2-2-2--|


  E E E E E E E S S   S S E E S S E E E S S   E E E S S S S E E S S
|-1-0---1-0-------0-|-1-0-1-----0-1-------0-|-1-------0-1-0-----1-1-|
|-3-3---3-3-----3---|---------3---------3---|-------3-------3---3-3-|
|-------------------|-----------------------|-----------------------|
|-------------------|-----------------------|-----------------------|
|-------------------|-----------------------|-----------------------|
|-------------------|-----------------------|-----------------------|
|
| E E E E E E E S S   E   E E E   E E E S S   E E E E   E   E E S S
|-------------------|-----------------------|-----------------------|
|-------------------|-----------------------|-----------------------|
|-------------------|-----------------------|-----------------------|
|-------------------|-----------------------|-----------------------|
|-2---2---2---2-0-0-|-0-----0-----0---0-0-0-|-0---0-----0-----0-2-2-|
|-2---2---2---2-0-0-|-0-----0-----0---0-0-0-|-0---0-----0-----0-2-2-|


  S S E S S S S E E S S S S   E E E E E E Q    E E E E H
|-4-4-4---4-4-4-4---3-0---1-|-0---4-4-4------|----------------|
|-5-5-5---5-3-3-5---6---3---|-----5-5-5------|-8-6---8-6------|
|---------------------------|-----4-4-4------|-9-7---9-7------|
|---------------------------|----------------|----------------|
|---------------------------|----------------|----------------|
|---------------------------|----------------|----------------|
|
| E   E E   E   E E E   S S   E E E E E E Q    Q   E E Q  Q
|---------------------------|----------------|----------------|
|---------------------------|----------------|----------------|
|---------------------------|----------------|----------------|
|---------------------------|----------------|----------------|
|-2-----2-------2---2---2-2-|-2---2---2------|-------0----0---|
|-2-----2-------2---2---2-2-|-2---2---2---2--|-0--------------|


  E E E E Q   E E   E E E E H       E E E E Q   E E   E E E E H
|-----------------|---------------|-----------------|---------------|
|-8-6---8-6---5-3-|-6-5---6-5-----|-6-5---6-5---3-1-|-5-4---5-4-----|
|-9-7---9-7---5-4-|-7-5---7-5-----|-7-5---7-5---4-2-|-5-4---5-4-----|
|-----------------|---------------|-----------------|---------------|
|-----------------|---------------|-----------------|---------------|
|-----------------|---------------|-----------------|---------------|
|
| Q   E E E E E E   Q   E E Q  Q    Q   E E E E E E   Q   E E Q  Q
|-----------------|---------------|-----------------|---------------|
|-----------------|---------------|-----------------|---------------|
|-----------------|---------------|-----------------|---------------|
|-----------------|---------------|-----------------|---------------|
|-------5-4-3-2-1-|-0-------------|-0-----0-0-0-2-0-|-2-----2-2--3--|
|-0---------------|-------2----2--|-----------------|---------------|


                                     |-3-|
  E E E E Q  E E   E  E E E Q  E E   S S S Q   E E E E S S
|----------------|-----------------|-----------------------|
|-5-3---5-3--6-5-|-3--1---3-1--0---|-----------------------|
|-5-4---5-4--7-5-|-4--2---4-2--0-2-|-2-4-2-1---------------|
|----------------|---------------3-|-----------3-2---3-3-3-|
|----------------|-----------------|-----------------------|
|----------------|-----------------|-----------------------|
|
| Q   E E Q  Q     H.          E E   E     E E E E E E E
|----------------|-----------------|-----------------------|
|----------------|-----------------|-----------------------|
|----------------|-----------------|-----------------------|
|-0-----0--------|-----------------|-----------------------|
|---------3--2---|-0---------------|-2-----2-2-2-2-2-2-2---|
|-0-----0--------|-------------5-3-|-2-----2-2-2-2-2-2-2---|


                                                        |-3-|
  E E E E E E E S S   E E E E E E E S S   E E E E E E E S S S
|-------------------|-------------------|---------------------|
|-------------------|-------------------|---------------------|
|-------------------|-------------------|---------------------|
|-3-2---3-2---5-3-3-|-3-2---3-2---3-3-3-|-3-2---3-2---5-3-5-3-|
|-------------------|-------------------|---------------------|
|-------------------|-------------------|---------------------|
|
| E E E E E E E E     E E E E E E E E     E E E E E E E E
|-------------------|-------------------|---------------------|
|-------------------|-------------------|---------------------|
|-------------------|-------------------|---------------------|
|-------------------|-------------------|---------------------|
|-2-2-2-2-2-2-2-2---|-2-2-2-2-2-2-2-2---|-2-2-2-2-2-2-2-2-----|
|-2-2-2-2-2-2-2-2---|-2-2-2-2-2-2-2-2---|-2-2-2-2-2-2-2-2-----|


            |3|
  E E E S S Q E +E  S S   W
|-------------------5-7-|-8---------------|
|-------6-5-4-5-(5)-----|-----------------|
|-----------------------|-----------------|
|-2---------------------|-----------------|
|-----------------------|-----------------|
|-----------------------|-----------------|
|
|           |3|
| E E E S S Q E +Q        E E E E E E E E
|-----------------------|-----------------|
|-----------------------|-----------------|
|-----------------------|-----------------|
|-------3-2-1-2-(2)-----|-3-2---3-2---3---|
|-2---------------------|-0-0---0-0---0---|
|-2---------------------|-----------------|


            |-3-|
  Q   E S S Q   E +E  S S   Q.     E H
|---------------------3-2-|-1------0-0--------|
|-------6-5-4---5-(5)-----|-------------------|
|-------------------------|-------------------|
|-------------------------|-------------------|
|-------------------------|-------------------|
|-------------------------|-------------------|
|
| E E E E   E E    E  E     E  E E E E E E E
|-------------------------|-------------------|
|-------------------------|-------------------|
|-------------------------|-------------------|
|-3-2---3---2------3------|-3--2---3-2---3----|
|-0-0---0---0------0------|-0--0---0-0---0----|
|-------------------------|-------------------|


  +H          S S S S S S S S   Q.     S S E E S S S S
|-(0)---------1-0-------0-1-3-|-5----------------------|
|-----------------3-2-3-------|--------3-2-3-------1-2-|
|-----------------------------|--------------2-3-4-----|
|-----------------------------|------------------------|
|-----------------------------|------------------------|
|-----------------------------|------------------------|
|
|  S  S E E E E   E   E   E     E  E E E   E E E   E
|-----------------------------|------------------------|
|-----------------------------|------------------------|
|-----------------------------|------------------------|
|--2--2-2---3-2-------2-------|------------------------|
|--0--0-0---0-0-------0-------|-0--0---0---0---0-------|
|-----------------------------|-0--0---0---0---0-------|


  H       S S S S E E   E E E E H
|---------------------|-3-1---3-1-------|
|-3---------------5-6-|-5-3---5-3-------|
|---------2-4-6-7-----|-----------------|
|---------------------|-----------------|
|---------------------|-----------------|
|---------------------|-----------------|
|
| E E E E E   E   E E   Q   E E Q  Q
|---------------------|-----------------|
|---------------------|-----------------|
|---------------------|-----------------|
|---------------------|-----------------|
|-0-0---0-0-------0---|-------0----0----|
|-0-0---0-0-------0---|-0---------------|


  E E E E Q   E E   E E E E H       E E E E Q   E E   E E E E H
|-3-1---3-1---0---|-1-0---1-0-----|-1-0---1-0-------|-0-----0-------|
|-5-3---5-3---1-3-|-3-1---3-1-----|-3-1---3-1---3-1-|-1-4---1-4-----|
|---------------4-|---------------|-------------4-2-|---4-----4-----|
|-----------------|---------------|-----------------|---------------|
|-----------------|---------------|-----------------|---------------|
|-----------------|---------------|-----------------|---------------|
|
| Q   E E E E E E   Q   E E Q  Q    E E E E E E Q     Q   E E Q  Q
|-----------------|---------------|-----------------|---------------|
|-----------------|---------------|-----------------|---------------|
|-----------------|---------------|-----------------|---------------|
|-----------------|---------------|-----------------|---------------|
|-------5-4-3-2-1-|-0-------------|---0-0-0-2-0-2---|-2-----2-2--3--|
|-0---------------|-------2----2--|-----------------|---------------|


  E E E E Q  E E   E  E E E Q  E E   E E E E E E E E     E E E E E E E E
|-0-----0----1-0-|-----------------|-------------------|------------------|
|-1-3---1-3--3-1-|-3--1---3-1--0---|-------------------|------------------|
|---4-----4------|-4--2---4-2--0-2-|-------------------|------------------|
|----------------|---------------3-|-3-2---3-2---3-----|-3-2---3-2---3-2--|
|----------------|-----------------|-------------------|------------------|
|----------------|-----------------|-------------------|------------------|
|
| Q   E E Q  Q     H.          E E   E E E E E E E S S   E E E E E E E E
|----------------|-----------------|-------------------|------------------|
|----------------|-----------------|-------------------|------------------|
|----------------|-----------------|-------------------|------------------|
|-0-----0--------|-----------------|-------------------|------------------|
|---------3--2---|-0---------------|-2-2---2-2---2-2-2-|-2-2---2-2---2-2--|
|-0-----0--------|-------------5-3-|-2-2---2-2---2-2-2-|-2-2---2-2---2-2--|


  E E H.            E E Q   E E Q    S S S S H.            E.   S E E E E E E
|-0-1-------------|-0-1-----0-1----|-------1-0-----------|----------0----------|
|-----------------|----------------|-0-1-3---------------|--------1---3-1-0----|
|-----2-----------|-----2-------2--|---------------------|------2-----------2--|
|-----------------|----------------|---------------------|---------------------|
|-----------------|----------------|---------------------|---------------------|
|-----------------|----------------|---------------------|---------------------|
|
| E E E  E E E Q    E E E E E E Q    E   E   E  E E E Q    E  E   E E E E E E
|-----------------|----------------|---------------------|---------------------|
|-----------------|----------------|---------------------|---------------------|
|-----------------|----------------|---------------------|---------------------|
|-3-2----3-2---3--|-3-2---3-2---3--|-3---2------3-2---3--|-3--2-----2-0--------|
|-0-0----0-0---0--|-0-0---0-0---0--|-0---0------0-0---0--|-0--0---------3-2-0--|
|-0-0----0-0---0--|-0-0---0-0---0--|---------------------|---------------------|


  E E H.            E E Q   E E Q    S S S S E S S E S S E  S  S
|-0-1-------------|-0-1-----0-1----|-----------------7-8-7-12-12--|
|-----------------|----------------|-----------5-6-5--------------|
|-----2-----------|-----2-------2--|-4-5-4-3-4--------------------|
|-----------------|----------------|------------------------------|
|-----------------|----------------|------------------------------|
|-----------------|----------------|------------------------------|
|
| E E E  E E E Q    E E E E E E Q    E   E   E E   E E   Q
|-----------------|----------------|------------------------------|
|-----------------|----------------|------------------------------|
|-----------------|----------------|------------------------------|
|-3-2----3-2---3--|-3-2---3-2---3--|-2---2-----2---2-----2--------|
|-0-0----0-0---0--|-0-0---0-0---0--|-2---2-----2---2-----2--------|
|-0-0----0-0---0--|-0-0---0-0---0--|-2---2-----2---2-----2--------|


   S  S  S  S S S S S H           E Q   E Q   S S S S   E Q   E Q   S S S S
|-12-13-12-10-8-7-5-4-0---------|-0-----0-----0-------|-0-----0-----------0-|
|-------------------------------|---3-----3-----3-1-0-|---3-----3---0-1-3---|
|-------------------------------|---------------------|---------------------|
|-------------------------------|---------------------|---------------------|
|-------------------------------|---------------------|---------------------|
|-------------------------------|---------------------|---------------------|
|
|  E     E    E   E   E E E S S   E E E E E E Q         E E E E E E Q
|-------------------------------|---------------------|---------------------|
|-------------------------------|---------------------|---------------------|
|-------------------------------|---------------------|---------------------|
|--2-----2--------2---2---2-2-2-|-3-3---3-3---3-------|-3-3---3-3---3-------|
|--2-----2--------2---2---2-2-2-|-0-0---0-0---0-------|-0-0---0-0---0-------|
|--2-----2--------2---2---2-2-2-|-0-0---0-0---0-------|-0-0---0-0---0-------|


  E Q   E Q   S S S S   E Q   E Q   S S S S   E Q   E Q   S S S S
|-1-0---1-0---3-2-1-0-|-1-0---1-0---1-0-----|-3-0---3-0---1-0-----|
|---------------------|-----------------3-1-|-----------------3-1-|
|---------------------|---------------------|---------------------|
|---------------------|---------------------|---------------------|
|---------------------|---------------------|---------------------|
|---------------------|---------------------|---------------------|
|
| E E E E E E Q         E E E E E E Q         E E E E E E Q
|---------------------|---------------------|---------------------|
|---------------------|---------------------|---------------------|
|---------------------|---------------------|---------------------|
|-0-0---0-0---0-------|-0-0---0-0---0-------|-3-3---3-3---3-------|
|-2-2---2-2---2-------|-2-2---2-2---2-------|-0-0---0-0---0-------|
|-2-2---2-2---2-------|-2-2---2-2---2-------|-0-0---0-0---0-------|


  E Q   E Q   S S S S   E Q   E Q   S S S S   E Q   E Q   S S S S
|-3-0---3-0---------0-|-1-0---1-0---3-2-1-0-|-1-0---1-0---3-2-1-0-|
|-------------0-1-3---|---------------------|---------------------|
|---------------------|---------------------|---------------------|
|---------------------|---------------------|---------------------|
|---------------------|---------------------|---------------------|
|---------------------|---------------------|---------------------|
|
| E E E E E E Q         E E E E E E Q         E E E E E E Q
|---------------------|---------------------|---------------------|
|---------------------|---------------------|---------------------|
|---------------------|---------------------|---------------------|
|-3-3---3-3---3-------|-0-0---0-0---0-------|-0-0---0-0---0-------|
|-0-0---0-0---0-------|-2-2---2-2---2-------|-2-2---2-2---2-------|
|-0-0---0-0---0-------|-2-2---2-2---2-------|-2-2---2-2---2-------|


    S S Q   E Q   S S S S   S S Q   E Q   S S S S   E Q   E Q   S S S S
||--1-1-0---1-0---3-2-1-0-|-1-1-0---1-0---3-2-1-0-|-1-0---1-0---3-2-1-0-|
||o-1-1-1---1-1-----------|-1-1-1---1-1-----------|-3-3---3-3-----------|
||------------------------|-----------------------|---------------------|
||------------------------|-----------------------|---------------------|
||o-----------------------|-----------------------|---------------------|
||------------------------|-----------------------|---------------------|
|
|   E   E E E E E Q         E   E E E E E Q         E E E E E E Q
||------------------------|-----------------------|---------------------|
||o-----------------------|-----------------------|---------------------|
||------------------------|-----------------------|---------------------|
||--2---2---2-2---2-------|-2---2---2-2---2-------|---------------------|
||o-0---0---------0-------|-0---0---------0-------|-2-2---2-2---2-------|
||----------2-2-----------|---------2-2-----------|-2-2---0-0---2-------|


  1.                      2.
  E Q   E Q   S S S S     E Q   E Q    S  S  S  S    E  E E  E  H
|-1-0---1-0---3-2-1-0--||-1-0---1-0---15-14-13-12-|-12-10---12-10------|
|-3-3---3-3-----------o||-3-3---3-3---------------|--------------------|
|----------------------||-------------------------|-12-10---12-10------|
|----------------------||-------------------------|--------------------|
|---------------------o||-------------------------|--------------------|
|----------------------||-------------------------|--------------------|
|
| E E E E E E Q           E E E E E E  Q             E  E E  E  E E Q
|----------------------||-------------------------|--------------------|
|---------------------o||-------------------------|--------------------|
|----------------------||-------------------------|--------------------|
|----------------------||-------------------------|--3--3----3--3---3--|
|-2-2---2-2---2-------o||-2-2---2-2----2----------|--0--0----0--0---0--|
|-2-2---0-0---2--------||-2-2---0-0----2----------|--0--0----0--0---0--|


   E  E E  E  Q   E E    E E E  E H         E E E  E Q   E E   E E E E H
|-12-10---12-10---8-7-|-10-8---10-8------|-10-8---10-8---7-5-|-8-7---8-7------|
|---------------------|------------------|-------------------|----------------|
|-12-10---12-10---9-7-|-10-9---10-9------|-10-9---10-9---7-5-|-9-8---9-8------|
|---------------------|------------------|-------------------|----------------|
|---------------------|------------------|-------------------|----------------|
|---------------------|------------------|-------------------|----------------|
|
|  E  E E  E  E E E E    E E E  E E E Q     E E E  E E E Q     E E E E E E Q
|---------------------|------------------|-------------------|----------------|
|---------------------|------------------|-------------------|----------------|
|---------------------|------------------|-------------------|----------------|
|--3--3----3--3-------|--3-2----3-2---3--|--3-2----3-2---3---|-4-4---4-4---4--|
|--0--0----0--0-4-3-2-|--0-0----0-0---0--|--0-0----0-0---0---|-2-2---2-2---2--|
|--0--0----0--0-------|------------------|-------------------|----------------|


                                      |-3-|
  E E E E Q    E E   E E E E H        S S S E E E Q  E E   W
|-8-7---8-7---10-8-|-7-5---7-5------|-7-8-7-5---7-5--3-1-|-0------------------|
|------------------|----------------|--------------------|--------------------|
|-9-8---9-8---10-9-|-7-5---7-5------|-7-----5---7-5--4-2-|-0------------------|
|------------------|----------------|--------------------|--------------------|
|------------------|----------------|--------------------|--------------------|
|------------------|----------------|--------------------|--------------------|
|
| E E E E E E  Q     E E E E E E Q    E     E E E Q  E E   E E E E E E E S S
|------------------|----------------|--------------------|--------------------|
|------------------|----------------|--------------------|--------------------|
|------------------|----------------|--------------------|--------------------|
|-3-3---3-3----3---|-3-3---3-3---3--|-3-----3---3-3------|-3-2---3-3---0-0-0--|
|-0-0---0-0----0---|-0-0---0-0---0--|-0-----0---0-0------|-2-2---2-2---2-2-2--|
|-0-0---0-0----0---|----------------|----------------5-3-|--------------------|


  +W                S S H       E Q    Q.     E Q   E E
|-(0)-------------|-5-5-5---------3--|-1------0-------0--|
|-----------------|---------------1--|-1------1-----3-0--|
|-(0)-------------|-5-5-5---------0--|--------------4----|
|-----------------|-7-7-7------------|-3------2-----0-2--|
|-----------------|------------------|-------------------|
|-----------------|------------------|-------------------|
|
|  E  E E E Q  Q    E   E E E E E Q    E  E E E E E Q
|-----------------|------------------|-------------------|
|-----------------|------------------|-------------------|
|-----------------|------------------|-------------------|
|--3--2---3-2--0--|-3---2---3-2---3--|-3--2---3-2---3----|
|--2--2---2-2--2--|-0---0---0-0---0--|-0--0---0-0---0----|
|-----------------|------------------|-------------------|


  S S H       E Q    Q.     E Q   Q    S S H       E Q
|---------------0--|-----------------|------------------|
|-6-6-6---------0--|-3------1--------|------------------|
|-4-4-4------------|-1------------4--|-2-2-2------------|
|-3-3-3---------2--|-0------3-----3--|---------------5--|
|------------------|--------3-----2--|-3-3-3---------3--|
|------------------|-----------------|------------------|
|
| E   E E E E E Q    E  E E E E E Q    E   E E E E E Q
|------------------|-----------------|------------------|
|------------------|-----------------|------------------|
|------------------|-----------------|------------------|
|-3---2---3-2---3--|-3--2---3-2---3--|-3---2---3-2---3--|
|-2---2---2-2---2--|-2--2---2-2---2--|-0---0---0-0---0--|
|-2---2---2-2---2--|-2--2---2-2---2--|------------------|


  Q.     E Q   E E   S S H       E Q    Q.     E Q   Q
|------------------|------------------|------------------|
|------------------|------------------|------------------|
|------------------|------------------|------------------|
|-3------2-----0-2-|-3-3-3---------2--|------------------|
|-3------3-----3-3-|-2-2-2---------2--|-5------3-----2---|
|------------------|------------------|-4------4-----4---|
|
| E  E E E E E Q     E   E E E E E Q    E  E E E E E Q
|------------------|------------------|------------------|
|------------------|------------------|------------------|
|------------------|------------------|------------------|
|-3--2---3-2---3---|-3---2---3-2---3--|-3--2---3-2---3---|
|-0--0---0-0---0---|-2---2---2-2---2--|-2--2---2-2---2---|
|------------------|-2---2---2-2---2--|-2--2---2-2---2---|


                                                 2/4
  S S E E S S E E E S S   S S E E S S E E E S S   H
|-----------------------|-----------------------|------|
|-----------------------|-----------------------|------|
|-----------------------|-----------------------|-2----|
|-3-3-2---3-3-2---3-2-2-|-3-3-2---3-3-2---3-2-2-|-2----|
|-3-3-3---3-3-3---3-3-3-|-3-3-3---3-3-3---3-3-3-|-3----|
|-----------------------|-----------------------|------|
|
| S S E E S S E E E S S   S S E E S S E E E S S   H
|-----------------------|-----------------------|------|
|-----------------------|-----------------------|------|
|-----------------------|-----------------------|------|
|-3-3-2---3-3-2---3-2-2-|-3-3-2---3-3-2---3-2-2-|-2----|
|-0-0-0---0-0-0---0-----|-0-0-0---0-0-0---0-----|-0----|
|-------------------2-2-|-------------------2-2-|------|


Duration Legend
---------------
W - whole; H - half; Q - quarter; E - 8th; S - 16th; T - 32nd; X - 64th; a - acciaccatura
+ - note tied to previous; . - note dotted; .. - note double dotted
Uncapitalized letters represent notes that are staccato (1/2 duration)
Irregular groupings are notated above the duration line
Duration letters will always appear directly above the note/fret number it represents the
duration for.  Duration letters with no fret number below them represent rests.  Multi-
bar rests are notated in the form Wxn, where n is the number of bars to rest for.  Low
melody durations appear below the staff

Tablature Legend
----------------
 h   - hammer-on
 p   - pull-off
 b   - bend
 pb  - pre-bend
 r   - bend release (if no number after the r, then release immediately)
 /\  - slide into or out of (from/to "nowhere")
 s   - legato slide
 S   - shift slide
  - natural harmonic
[n]  - artificial harmonic
n(n) - tapped harmonic
 ~   - vibrato
 tr  - trill
 T   - tap
 TP  - trem. picking
 PM  - palm muting
\n/  - tremolo bar dip; n = amount to dip
 \n  - tremolo bar down
 n/  - tremolo bar up
/n\  - tremolo bar inverted dip
 =   - hold bend; also acts as connecting device for hammers/pulls
 <>  - volume swell (louder/softer)
 x   - on rhythm slash represents muted slash
 o   - on rhythm slash represents single note slash

Misc Legend
-----------
 |  - bar
||  - double bar
||o - repeat start
o|| - repeat end
*|  - double bar (ending)
 :  - bar (freetime)
 $  - Segno
 &  - Coda
Tempo markers -  = BPM(8/16=s8/s16), where s8 = swing 8ths, s16 = swing 16ths


***************************************************************************************
* Generated using Power Tab Editor by Brad Larsen - http://powertab.guitarnetwork.org *
***************************************************************************************

            
            
Suggest correction
Creating personal tab
Creating personal tab
You can edit any tab online and save it as your Personal.

You can edit, replace or remove any tab part or add personal notes – all changes will be seen only by you.

Personal tabs can be accessed anytime from any device, even offline.
Learn more »
Give kudos to tab author, rate the tab!
1 2 3 4 5
comments
print report bad tab
guest
You may want to rate the tab now too:
select rating
Wanna post a correction for this tab? Suggest correction