Oops, an error
Loading. Please wait.

On Stranger Tides - South Of Heavens Chanting Mermaids tab

version 1
version 1

Whole song

Interactive

121 views 1 this week
no commentswrite comment
1 2 3 4 5
2 more votes to show rating
add to favorites
×
Save as Personal and add changes to this tab that will be seen only by you. Learn more ›
×
You can save this tab as Personal to edit and correct it or add notes. All changes will be seen only by you. Learn more »
launch autoscroll
font size
0
reset
how to read this tab
guitar tuner
edit
Autoscroll
slow
fast
+/-
esc
set tempo
stop
On Stranger Tides - South of Heaven's Chanting Mermaids

Tabbed from piano transcription. There was no proper ending, so I improvised a little to recover the 'feel'
of the original song.

Gtr I (E A D G B E) - 'Lead'
Gtr II (E A D G B E) - 'Rhythm'

    Q=113
   4/4
    Gtr I
    W                 W                   W                 W
||------------------|------------------||-----------------|-----------------|
||o-----------------|-----------------o||-----------------|-----------------|
||------------------|------------------||-----------------|-----------------|
||------------------|------------------||-----------------|-----------------|
||o-----------------|-----------------o||-----------------|-----------------|
||------------------|------------------||-----------------|-----------------|
|
|   Gtr II
|   E E E E E E E E   E E E E E E E E     E E E E E E E E   E E E E E E E E
||------------------|------------------||-----0-----0-----|-----0-----0-----|
||o-----1-----1-----|-----1-----1-----o||-----------------|-----------------|
||------------------|------------------||-----------------|-----------------|
||----2-----2-----2-|---2-----2-----2--||---2-----2-----2-|---2-----2-----2-|
||o-0-----0-----0---|-0-----0-----0---o||-0-----0-----0---|-0-----0-----0---|
||------------------|------------------||-----------------|-----------------|


  Gtr I
  W                 W                   Q.     E H         +H        Q   Q
|-----------------|-----------------||-------------------|---------------5---|
|-----------------|-----------------||o-5------7-8-------|-(8)-------7-------|
|-----------------|-----------------||-------------------|-------------------|
|-----------------|-----------------||-------------------|-------------------|
|-----------------|-----------------||o------------------|-------------------|
|-----------------|-----------------||-------------------|-------------------|
|
| E E E E E E E E   E E E E E E E E     E  E E E E E E E    E  E E E E E E E
|-----------------|-----------------||-------------------|-------------------|
|-----1-----1-----|-----1-----1-----||o------1-----1-----|-------1-----1-----|
|-----------------|-----------------||-----4-----4-----4-|-----4-----4-----4-|
|---2-----2-----2-|---2-----2-----2-||-------------------|-------------------|
|-0-----0-----0---|-0-----0-----0---||o-0------0-----0---|--0------0-----0---|
|-----------------|-----------------||-------------------|-------------------|


  H       +Q.     S S   W
|---------------------|-----------------|
|-7-------(7)-----8-7-|-5---------------|
|---------------------|-----------------|
|---------------------|-----------------|
|---------------------|-----------------|
|---------------------|-----------------|
|
| E E E E  E  E E E     E E E E E E E E
|---------------------|-----------------|
|-----1-------1-------|-----1-----1-----|
|---4------4------4---|---4-----4-----4-|
|---------------------|-----------------|
|-0-----0-------0-----|-0-----0-----0---|
|---------------------|-----------------|


  Q.     E H         +H        Q   Q
|------------------|---------------5----|
|-5------7-8-------|-(8)-------7--------|
|------------------|--------------------|
|------------------|--------------------|
|------------------|--------------------|
|------------------|--------------------|
|
| E  E E E E E E E    E  E E E E E E E
|------------------|--------------------|
|------1-----1-----|-------1-----1------|
|----4-----4-----4-|-----4-----4-----4--|
|------------------|--------------------|
|-0------0-----0---|--0------0-----0----|
|------------------|--------------------|


  H       +Q.     S S   W
|---------------------|-----------------|
|-7-------(7)-----8-7-|-5---------------|
|---------------------|-----------------|
|---------------------|-----------------|
|---------------------|-----------------|
|---------------------|-----------------|
|
| E E E E  E  E E E     E E E E E E E E
|---------------------|-----------------|
|-----1-------1-------|-----1-----1-----|
|---4------4------4---|---4-----4-----4-|
|---------------------|-----------------|
|-0-----0-------0-----|-0-----0-----0---|
|---------------------|-----------------|


               |-3-|
  H.           S S S E   H.           E E
|----------------------|-------------------|
|-6------------5-6-5-3-|--------------3-5--|
|----------------------|-2-----------------|
|----------------------|-------------------|
|----------------------|-------------------|
|----------------------|-------------------|
|
| E  E E E E E E     E   E  E E E E E E E
|----------------------|-------------------|
|----------------------|-------------------|
|------2-----2---------|------2-----2------|
|----3-----3---------3-|----3-----3-----3--|
|-5------5-----5-------|-5------5-----5----|
|----------------------|-------------------|


               |-3-|
  H.           S S S E   H       +Q.     S S
|----------------------|-5-------(5)-------5-|
|-6------------5-6-5-3-|-----------------6---|
|----------------------|---------------------|
|----------------------|---------------------|
|----------------------|---------------------|
|----------------------|---------------------|
|
| E  E E E E E E     E   E E E E  E  E E E
|----------------------|---------------------|
|----------------------|---------------------|
|------2-----2---------|-----2-------2-------|
|----3-----3---------3-|---3------3------3---|
|-5------5-----5-------|-5-----5-------5-----|
|----------------------|---------------------|


  Q.     S S Q.     S S   Q.     S S Q.     S S
|-4------5-7------------|-------------------------|
|------------5------3-5-|-------------------------|
|-----------------------|-5------4-5--------2-4---|
|-----------------------|------------6------------|
|-----------------------|-------------------------|
|-----------------------|-------------------------|
|
| E  E E E   E  E E E     E  E E E   E  E E E
|-----------------------|-------------------------|
|-----------------------|-------------------------|
|------1--------4-------|------1------------------|
|----0-------0------0---|----0-------0--2---0-----|
|-----------------------|-------------------------|
|-0------0--------0-----|-0------0--------0-------|


  Q.     S S Q.     S S   Q.     S S H
|-----------------------|--------------------|
|-----------------------|--------------------|
|-----------------------|--------------------|
|-2------0-2------------|--------------------|
|------------3------2-3-|--------0-2---------|
|-----------------------|-4----------0-------|
|
| E  E E E   E  E E E     E  E E E   E E E E
|-----------------------|--------------------|
|-----------------------|--------------------|
|------1--------1-------|------1-------1-----|
|----0-------0------0---|----0-------0-----0-|
|-----------------------|--------------------|
|-0------0--------0-----|-0------0-------0---|


 1.
  Q.     E H         +H        Q   Q
|------------------|---------------5----|
|-5------7-8-------|-(8)-------7--------|
|------------------|--------------------|
|------------------|--------------------|
|------------------|--------------------|
|------------------|--------------------|
|
| E  E E E E E E E    E  E E E E E E E
|------------------|--------------------|
|------1-----1-----|-------1-----1------|
|----4-----4-----4-|-----4-----4-----4--|
|-2------2-----2---|--2------2-----2----|
|-0------0-----0---|--0------0-----0----|
|------------------|--------------------|


  H       +Q.     S S   W
|---------------------|-----------------|
|-7-------(7)-----8-7-|-5---------------|
|---------------------|-----------------|
|---------------------|-----------------|
|---------------------|-----------------|
|---------------------|-----------------|
|
| E E E E  E  E E E     E E E E E E E E
|---------------------|-----------------|
|-----1-------1-------|-----1-----1-----|
|---4------4------4---|---4-----4-----4-|
|-2-----2-------2-----|-2-----2-----2---|
|-0-----0-------0-----|-0-----0-----0---|
|---------------------|-----------------|


  Q.     E H         +H        Q   Q
|------------------|---------------5----|
|-5------7-8-------|-(8)-------7--------|
|------------------|--------------------|
|------------------|--------------------|
|------------------|--------------------|
|------------------|--------------------|
|
| E  E E E E E E E    E  E E E E E E E
|------------------|--------------------|
|------1-----1-----|-------1-----1------|
|----4-----4-----4-|-----4-----4-----4--|
|-2------2-----2---|--2------2-----2----|
|-0------0-----0---|--0------0-----0----|
|------------------|--------------------|


  H       +Q.     S S   W
|---------------------|-----------------|
|-7-------(7)-----8-7-|-5---------------|
|---------------------|-----------------|
|---------------------|-----------------|
|---------------------|-----------------|
|---------------------|-----------------|
|
| E E E E  E  E E E     E E E E E E E E
|---------------------|-----------------|
|-----1-------1-------|-----1-----1-----|
|---4------4------4---|---4-----4-----4-|
|-2-----2-------2-----|-2-----2-----2---|
|-0-----0-------0-----|-0-----0-----0---|
|---------------------|-----------------|


               |-3-|
  H.           S S S E   H.           E E
|----------------------|-------------------|
|-6------------5-6-5-3-|--------------3-5--|
|----------------------|-2-----------------|
|----------------------|-------------------|
|----------------------|-------------------|
|----------------------|-------------------|
|
| E  E E E E E E     E   E  E E E E E E E
|----------------------|-------------------|
|----------------------|-------------------|
|------2-----2---------|------2-----2------|
|----3-----3---------3-|----3-----3-----3--|
|-5------5-----5-------|-5------5-----5----|
|----------------------|-------------------|


               |-3-|
  H.           S S S E   H       +Q.     S S
|----------------------|-5-------(5)-------5-|
|-6------------5-6-5-3-|-----------------6---|
|----------------------|---------------------|
|----------------------|---------------------|
|----------------------|---------------------|
|----------------------|---------------------|
|
| E  E E E E E E     E   E E E E  E  E E E
|----------------------|---------------------|
|----------------------|---------------------|
|------2-----2---------|-----2-------2-------|
|----3-----3---------3-|---3------3------3---|
|-5------5-----5-------|-5-----5-------5-----|
|----------------------|---------------------|


  Q.     S S Q.     S S   Q.     S S Q.     S S
|-4------5-7------------|-------------------------|
|------------5------3-5-|-------------------------|
|-----------------------|-5------4-5--------2-4---|
|-----------------------|------------6------------|
|-----------------------|-------------------------|
|-----------------------|-------------------------|
|
| E  E E E   E  E E E     E  E E E   E  E E E
|-----------------------|-------------------------|
|-----------------------|-------------------------|
|------1--------4-------|------1------------------|
|----0-------0------0---|----0-------0--2---0-----|
|-----------------------|-------------------------|
|-0------0--------0-----|-0------0--------0-------|


  Q.     S S Q.     S S   Q.     S S Q   Q
|-----------------------|--------------------|
|-----------------------|--------------------|
|-----------------------|--------------------|
|-2------0-2------------|----------------2---|
|------------3------2-3-|--------0-2---------|
|-----------------------|-4----------0-------|
|
| E  E E E   E  E E E     E  E E E   E E E E
|-----------------------|--------------------|
|-----------------------|--------------------|
|------1--------1-------|------1-------1-----|
|----0-------0------0---|----0-------0-----0-|
|-----------------------|--------------------|
|-0------0--------0-----|-0------0-------0---|


  W                 H.           Q
|-1---------------|-0-----------------|
|-----------------|-------------------|
|-----------------|-------------------|
|-----------------|--------------2----|
|-----------------|-------------------|
|-----------------|-------------------|
|
| E E E E E E E E   E  E E E E E E E
|-----0-----0-----|-------------------|
|---1-----1-----1-|------1-----1------|
|-----------------|----2-----2-----2--|
|-----------------|-------------------|
|-0-----0-----0---|-0------0-----0----|
|-----------------|-------------------|


  Q.     E +Q    Q     Q.     E +Q    Q
|-1------0-(0)-------|-1------0-(0)-------|
|--------------------|--------------------|
|----------------2---|----------------2---|
|--------------------|--------------------|
|--------------------|--------------------|
|--------------------|--------------------|
|
| E  E E E  E  E E E   E  E E E  E  E E E
|--------------------|--------------------|
|------1-------1-----|------1-------1-----|
|----2------2------2-|----2------2------2-|
|--------------------|--------------------|
|-0------0-------0---|-0------0-------0---|
|--------------------|--------------------|


  W                 H       +Q    Q
|-4---------------|-5-------(5)-------|
|-----------------|-------------------|
|-----------------|---------------2---|
|-----------------|-------------------|
|-----------------|-------------------|
|-----------------|-------------------|
|
| E E E E E E E E   E E E E  E  E E E
|-----------------|-------------------|
|-----0-----0-----|-----0-------0-----|
|---2-----2-----2-|---2------2------2-|
|-----------------|-------------------|
|-3-----3-----3---|-3-----3-------3---|
|-1-----1-----1---|-1-----1-------1---|


  W                  H       +Q    Q     W                 H.           Q
|-4---------------|-/5-------(5)-------|-4---------------|-5----------------|
|-----------------|--------------------|-----------------|------------------|
|-1---------------|-/2-------(2)---2---|-----------------|--------------2---|
|-----------------|--------------------|-----------------|------------------|
|-----------------|--------------------|-----------------|------------------|
|-----------------|--------------------|-----------------|------------------|
|
| E E E E E E E E    E E E E  E  E E E   E E E E E E E E   E  E E E E E E E
|-----------------|--------------------|-----------------|------------------|
|-----0-----0-----|------0-------0-----|-----------------|------------------|
|---2-----2-----2-|----2------2------2-|-----2-----2-----|------2-----2-----|
|-----------------|--------------------|---3-----3-----3-|----3-----3-----3-|
|-3-----3-----3---|--3-----3-------3---|-5-----5-----5---|-5------5-----5---|
|-1-----1-----1---|--1-----1-------1---|-----------------|------------------|


  Q.     E +Q    Q     Q.     E +Q    Q
|-4------5-(5)-------|-5------7-(7)---1---|
|--------------------|--------------------|
|----------------2---|--------------------|
|--------------------|--------------------|
|--------------------|--------------------|
|--------------------|--------------------|
|
| E  E E E  E  E E E   E  E E E  E  E E E
|--------------------|--------------------|
|--------------------|--------------------|
|------2-------2-----|------2-------2-----|
|----3------3------3-|----3------3------3-|
|-5------5-------5---|-5------5-------5---|
|--------------------|--------------------|


  H       +Q.     S S   W
|-1-------(1)-----0-1-|-0----------------|
|---------------------|------------------|
|---------------------|------------------|
|---------------------|------------------|
|---------------------|------------------|
|---------------------|------------------|
|
| E E E E  E  E E E     E E E E E E E E
|---------------------|------------------|
|-----0-------0-------|-----0-----0------|
|---------------------|------------------|
|---2------2------2---|---2-----2-----2--|
|-0-----0-------0-----|-0-----0-----0----|
|---------------------|------------------|


  +W                  +W
|-(0)---------------|-(0)---------------|
|-------------------|-------------------|
|-------------------|-------------------|
|-------------------|-------------------|
|-------------------|-------------------|
|-------------------|-------------------|
|
|  E  E E E E E E E    E  E E E E E E E
|-------------------|-------------------|
|-------------------|-------------------|
|-------2-----2-----|-------2-----2-----|
|-----2-----2-----2-|-----2-----2-----2-|
|--0------0-----0---|--0------0-----0---|
|-------------------|-------------------|


  W                 H       +Q.     S S
|-----------------|----------------------|
|-3---------------|-1-------(1)-----0-1--|
|-----------------|----------------------|
|-----------------|----------------------|
|-----------------|----------------------|
|-----------------|----------------------|
|
| E E E E E E E E   E E E E  E  E E E
|-----------------|----------------------|
|-----0-----0-----|----------------------|
|-----------------|-----2-------2--------|
|---2-----2-----2-|---2------2------2----|
|-0-----0-----0---|-0-----0-------0------|
|-----------------|----------------------|


                                       2.
  W                 W                   Q.     E H          H       Q   Q
|-----------------|------------------||------------------|--------------5---|
|-----------------|-----------------o||-5------7-8-------|-^8-------7-------|
|-2---------------|------------------||------------------|-^9---------------|
|-----------------|------------------||------------------|------------------|
|-----------------|-----------------o||------------------|------------------|
|-----------------|------------------||------------------|------------------|
|
| E E E E E E E E   E E E E E E E E     E  E E E E E E E    E E E E E E E E
|-----------------|------------------||------------------|------------------|
|-----------------|-----------------o||------1-----1-----|------1-----1-----|
|-----2-----2-----|-----2-----2------||----4-----4-----4-|----4-----4-----4-|
|---2-----2-----2-|---2-----2-----2--||------------------|------------------|
|-0-----0-----0---|-0-----0-----0---o||-3------3-----3---|--3-----3-----3---|
|-----------------|------------------||-1------1-----1---|--1-----1-----1---|


  H       +Q.     S S   W                 Q.     E H         E Q.     E E E E
|---------------------|-----------------|------------------|---7------7-----5--|
|-7-------(7)-----8-7-|-5---------------|-5------7-8-------|---9--------8-8-7--|
|---------------------|-----------------|------------------|---9--------9-9----|
|---------------------|-----------------|------------------|-------------------|
|---------------------|-----------------|------------------|-------------------|
|---------------------|-----------------|------------------|-------------------|
|
| E E E E  E  E E E     E E E E E E E E   E  E E E E E E E   E E  E E E E E E
|---------------------|-----------------|------------------|-------------------|
|-----1-------1-------|-----1-----1-----|------1-----1-----|------1-----1------|
|---4------4------4---|---4-----4-----4-|----4-----4-----4-|---4------4-----4--|
|---------------------|-----------------|------------------|-------------------|
|-3-----3-------3-----|-3-----3-----3---|-3------3-----3---|-3------3-----3----|
|-1-----1-------1-----|-1-----1-----1---|-1------1-----1---|-1------1-----1----|


                 |-3-|
  H.           E S S S   E Q   E +H
|-5------------3-2-3-2-|-0-7---7-(7)-------|
|-7--------------------|---9---9-(9)-------|
|----------------------|-------9-(9)-------|
|----------------------|-------------------|
|----------------------|-------------------|
|----------------------|-------------------|
|
| E  E E E E E E E       E E E E  E  E E E
|----------------------|-------------------|
|------1-----1---------|-----1-------1-----|
|----4-----4-----4-----|---4------4------4-|
|----------------------|-------------------|
|-3------3-----3-------|-3-----3-------3---|
|-1------1-----1-------|-1-----1-------1---|


  H.           S S S S   Q   Q   E Q   E
|-0--------------------|-----5---8-7---5-|
|-6------------5-6-5-3-|-----------------|
|-5--------------------|-2---------------|
|----------------------|-----------------|
|----------------------|-----------------|
|----------------------|-----------------|
|
| E  E E E E E E   E     E E E E E E E E
|----------------------|-----------------|
|----------------------|-----------------|
|------2-----2---------|-----2-----2-----|
|----3-----3-------3---|---3-----3-----3-|
|-5------5-----5-------|-5-----5-----5---|
|----------------------|-----------------|


  H       S S E Q     H       Q   E S S
|-------------------|---------3---5---5-|
|-6-------5-6-5-3---|-6-------------6---|
|-------------------|-------------------|
|-------------------|-------------------|
|-------------------|-------------------|
|-------------------|-------------------|
|
| E E E E E   E E E   E E E E E E E E
|-------------------|-------------------|
|-------------------|-------------------|
|-----2-------2-----|-----2-----2-------|
|---3-----3-------3-|---3-----3-----3---|
|-5-----5-------5---|-5-----5-----5-----|
|-------------------|-------------------|


  Q.      S  S  Q.      S  S    Q.     S S Q.     S S
|-4------17-19---------10-12-|---------7-8--------5-7-|
|-3------------17------------|-13----------9----------|
|----------------------------|------------------------|
|----------------------------|------------------------|
|----------------------------|------------------------|
|----------------------------|------------------------|
|
| E  E E  E     E  E E  E       E  E E E   E  E E E
|----------------------------|------------------------|
|----------------------------|------------------------|
|------1-----------4---------|-------1----------------|
|----0----------0-------0----|-----0-------0--2---0---|
|----------------------------|------------------------|
|-0-------0----------0-------|--0------0--------0-----|


  Q.     S S Q.     S S   Q.     S S Q   Q
|-----------------------|----------------0---|
|-5------3-5------------|--------------------|
|------------5------4-5-|--------2-4---------|
|-----------------------|-6----------2-------|
|-----------------------|--------------------|
|-----------------------|--------------------|
|
| E  E E E   E  E E E     E  E E E   E E E E
|-----------------------|--------------------|
|-----------------------|--------------------|
|------1--------1-------|------1-------1-----|
|----0-------0------0---|----0-------0-----0-|
|-----------------------|--------------------|
|-0------0--------0-----|-0------0-------0---|


  W                 H.           Q
|-1---------------|-0-----------------|
|-----------------|-------------------|
|-----------------|-------------------|
|-----------------|--------------2----|
|-----------------|-------------------|
|-----------------|-------------------|
|
| E E E E E E E E   E  E E E E E E E
|-----0-----0-----|-------------------|
|---1-----1-----1-|------1-----1------|
|-----------------|----2-----2-----2--|
|-2-----2-----2---|-2------2-----2----|
|-0-----0-----0---|-0------0-----0----|
|-----------------|-------------------|


  Q.     E +Q    Q     Q.     E +Q    Q     W                 H.           Q
|-1------0-(0)-------|-1------0-(0)-------|-4---------------|-5----------------|
|--------------------|--------------------|-----------------|------------------|
|----------------2---|----------------2---|-----------------|--------------2---|
|--------------------|--------------------|-----------------|------------------|
|--------------------|--------------------|-----------------|------------------|
|--------------------|--------------------|-----------------|------------------|
|
| E  E E E  E  E E E   E  E E E  E  E E E   E E E E E E E E   E  E E E E E E E
|--------------------|--------------------|-----------------|------------------|
|------1-------1-----|------1-------1-----|-----0-----0-----|------0-----0-----|
|----2------2------2-|----2------2------2-|---2-----2-----2-|----2-----2-----2-|
|-2------2-------2---|-2------2-------2---|-----------------|------------------|
|-0------0-------0---|-0------0-------0---|-3-----3-----3---|-3------3-----3---|
|--------------------|--------------------|-1-----1-----1---|-1------1-----1---|


  W                 H.           Q     W                 H.           Q
|-4---------------|-5----------------|-4---------------|-5----------------|
|-----------------|------------------|-----------------|------------------|
|-1---------------|-2------------2---|-----------------|--------------2---|
|-----------------|------------------|-----------------|------------------|
|-----------------|------------------|-----------------|------------------|
|-----------------|------------------|-----------------|------------------|
|
| E E E E E E E E   E  E E E E E E E   E E E E E E E E   E  E E E E E E E
|-----------------|------------------|---1-----1-------|----1-----1-------|
|-----0-----0-----|------0-----0-----|-----------------|------------------|
|---2-----2-----2-|----2-----2-----2-|-----2-----2---2-|------2-----2-2-2-|
|-----------------|------------------|-0-----0-----0---|-0------0---------|
|-3-----3-----3---|-3------3-----3---|-----------------|------------------|
|-1-----1-----1---|-1------1-----1---|-----------------|------------------|


  Q.     E +Q    Q     Q.     E +Q    Q
|-4------5-(5)-------|-5------7-(7)---1---|
|--------------------|--------------------|
|----------------2---|--------------------|
|--------------------|--------------------|
|--------------------|--------------------|
|--------------------|--------------------|
|
| E  E E E  E  E E E   E  E E E  E  E E E
|----1------1--------|----1------1--------|
|--------------------|--------------------|
|------2-------2-2-2-|------2-------2---2-|
|-0------0-----------|-0------0-------0---|
|--------------------|--------------------|
|--------------------|--------------------|


  H       +Q.     S S   H       +Q.     S S
|-1-------(1)---------|---------------------|
|-----------------5-6-|-5-------(5)-----3-5-|
|---------------------|---------------------|
|---------------------|---------------------|
|---------------------|---------------------|
|---------------------|---------------------|
|
| E E E E  E  E E E     E E E E  E  E E E
|---------------------|---------------------|
|---------------------|-----1-------1-------|
|-----4-------4-------|---------------------|
|---2------2------2---|---2------2------2---|
|-0-----0-------0-----|-0-----0-------0-----|
|---------------------|---------------------|


  H       +Q.     S S   Q.     S S E E Q
|---------------------|--------------------|
|-3-------(3)-----1-3-|-1------------------|
|---------------------|--------4-5-4-2-2---|
|---------------------|--------------------|
|---------------------|--------------------|
|---------------------|--------------------|
|
| E E E E  E  E E E     E  E E E   E E E E
|---------------------|--------------------|
|---------------------|--------------------|
|-----4-------4-------|------4-------4-----|
|---2------2------2---|----2-------2-----2-|
|-0-----0-------0-----|-0------0-------0---|
|---------------------|--------------------|


   W                  H.           Q
|-13---------------|-12----------------|
|------------------|-------------------|
|-10---------------|--9------------9---|
|------------------|-------------------|
|------------------|-------------------|
|------------------|-------------------|
|
|  E E E E E E E E    E  E E E E E E E
|------------------|-------------------|
|------1-----1-----|-------1-----1-----|
|------------------|-------------------|
|----2-----2---0-2-|-----2-----2---0-2-|
|--0-----3---------|--0------3---------|
|------------------|-------------------|


   Q.      E  +Q    Q      Q.      E  +Q    Q
|-13------12-(12)---5---|-13------12-(12)---5---|
|-----------------------|-----------------------|
|-10-------9--(9)---2---|-10-------9--(9)---2---|
|-----------------------|-----------------------|
|-----------------------|-----------------------|
|-----------------------|-----------------------|
|
|  E  E E  E   E  E E E    E  E E  E   E  E E E
|-----------------------|-----------------------|
|-------1---------1-----|-------1---------1-----|
|-----------------------|-----------------------|
|-----2--------2----0-2-|-----2--------2----0---|
|--0-------3------------|--0-------3----------3-|
|-----------------------|-----------------------|


   W                  H.           Q
|-16---------------|-17----------------|
|------------------|-------------------|
|-13---------------|-14------------2---|
|------------------|-------------------|
|------------------|-------------------|
|------------------|-------------------|
|
|  E E E E E E E E    E  E E E E E E E
|------------------|-------------------|
|------0-----0-----|-------0-----0-----|
|----2-----2-----2-|-----2-----2-----2-|
|------------------|-------------------|
|--3-----3-----3---|--3------3-----3---|
|--1-----1-----1---|--1------1-----1---|


  W                 H.           Q      W                  H.           Q
|-4---------------|-5------------5---|-16---------------|-17------------5---|
|-----------------|------------------|------------------|-------------------|
|-----------------|--------------2---|-13---------------|-14------------2---|
|-----------------|------------------|------------------|-------------------|
|-----------------|------------------|------------------|-------------------|
|-----------------|------------------|------------------|-------------------|
|
| E E E E E E E E   E  E E E E E E E    E E E E E E E E    E  E E E E E E E
|-----------------|------------------|------1-----1---1-|-------1-----1---1-|
|-----0-----0-----|------0-----0-----|------------------|-------------------|
|---2-----2-----2-|----2-----2-------|----2-----2---2---|-----2-----2---2---|
|-----------------|------------------|--0---------------|--0----------------|
|-3-----3-----3---|-3------3-----3-0-|--------2---------|---------2---------|
|-1-----1-----1---|-1------1-----1---|------------------|-------------------|


   Q.      E  +Q    Q      Q.      E  +Q     Q
|-16------17-(17)---5---|-17------19-(19)---13---|
|-----------------------|------------------------|
|-13------14-(14)---2---|-14------16-(16)---10---|
|-----------------------|------------------------|
|-----------------------|------------------------|
|-----------------------|------------------------|
|
|  E  E E  E   E  E E E    E  E E  E   E  E  E E
|-------1---------1---1-|-------1---------1----1-|
|-----------------------|------------------------|
|-----2--------2----2---|-----2--------2-----2---|
|--0--------------------|--0---------------------|
|----------2------------|----------2-------------|
|-----------------------|------------------------|


   H        +Q.      S  S    W
|-13-------(13)-----12-13-|-12----------------|
|-------------------------|-------------------|
|-10-------(10)-----------|--9----------------|
|-------------------------|-------------------|
|-------------------------|-------------------|
|-------------------------|-------------------|
|
|  E E E E   E  E E  E       E E E E E E E E
|-------------------------|-------------------|
|------0--------0---------|------1-----1------|
|-------------------------|-------------------|
|----2-------2----0--2----|----2-----2-----2--|
|--0-----3----------------|--0-----3-----2----|
|-------------------------|-------------------|


   +W                   +W
|-(12)---------------|-(12)---------------|
|--------------------|--------------------|
|--(9)---------------|--(9)---------------|
|--------------------|--------------------|
|--------------------|--------------------|
|--------------------|--------------------|
|
|   E  E E E E E E E     E  E E E E E E E
|--------------------|--------------------|
|--------------------|--------------------|
|--------2-----2-----|--------2-----2---2-|
|------2-----2---0-2-|------2-----2-------|
|---0------3---------|---0------3-----2---|
|--------------------|--------------------|


  W                 +H.           E S S
|-----------------|----------------------|
|-3---------------|-(3)-------------1-0--|
|-----------------|----------------------|
|-----------------|----------------------|
|-----------------|----------------------|
|-----------------|----------------------|
|
| E E E E E E E E    E  E E E E E E E
|-----------------|----------------------|
|-----0-----0-----|-------1-----1--------|
|-----------------|----------------------|
|---2-----2-----2-|-----2-----2-----2----|
|-0-----0-----0---|--0------0-----0------|
|-----------------|----------------------|


  W                 W                   E E Q.     E E E   E E Q.     E E E
|-----------------|-----------------||-------------------|--------------------|
|-----------------|-----------------||o------------------|--------------------|
|-2---------------|-----------------||----0-4------4-5-4-|---0-5------5-5-4---|
|-----------------|-----------------||-------------------|--------------------|
|-----------------|-----------------||o-2----------------|-3------------------|
|-----------------|-----------------||-------------------|--------------------|
|
| E E E E E E E E   E E E E E E E E     E E E  E E E E E   E E E  E E E E E
|-----------------|-----------------||-------------------|--------------------|
|-----------------|-----------------||o------------------|--------------------|
|-----2-----2-----|-2---2-2---2-2-2-||--2---2--2---2-2---|-2---2--2---2-2-----|
|---2-----2-----2-|-2-2---2-2---2-2-||--2-2----2-2---2-2-|-2-2----2-2---2-2---|
|-0-----0-----0---|-0-----0-----0-0-||o-0------0-----0---|-0------0-----0-----|
|-----------------|-----------------||-------------------|--------------------|


  E E Q.     E E E   E E Q.     E E E
|------------------|-------------------||-|
|------------------|------------------o||-|
|---0-2------5-4---|---0-2------2-2-0--||-|
|----------------2-|-------------------||-|
|-0----------------|-0----------------o||-|
|------------------|-------------------||-|
|
| E E E  E E E E E   E E E  E E E E E
|------------------|-------------------||-|
|------------------|------------------o||-|
|-2---2--2---2-2---|-2---2--2---2-2----||-|
|-2-2----2-2---2-2-|-2-2----2-2---2-2--||-|
|-0------0-----0---|-0------0-----0---o||-|
|------------------|-------------------||-|


    E E Q     E E E E   E E Q     E E E E
||--------------------|--------------------|
||o-------------------|--------------------|
||----0-4-----0-4-5-4-|---0-5-----0-5-5-4--|
||--------------------|--------------------|
||o-2-----------------|-3------------------|
||--------------------|--------------------|
|
|     PM  PM|   PM  PM    PM  PM|   PM  PM
|   E E E S S E E E E   E E E S S E E E E
||--------------------|--------------------|
||o-------------------|--------------------|
||--2---2-----2---2---|-2---2-----2---2----|
||--2---2-----2---2---|-2---2-----2---2----|
||o-0-0-0-0-0-0-0-0-0-|-0-0-0-0-0-0-0-0-0--|
||--------------------|--------------------|


  E E Q     E E E E   E E Q     E E E E
|-------------------|--------------------||-|
|-------------------|-------------------o||-|
|---0-2-----0-5-4---|---0-2-----0-2-2-0--||-|
|-----------------2-|--------------------||-|
|-0-----------------|-0-----------------o||-|
|-------------------|--------------------||-|
|
|   PM  PM|   PM  PM    PM  PM|   PM  PM
| E E E S S E E E E   E E E S S E E E E
|-------------------|--------------------||-|
|-------------------|-------------------o||-|
|-2---2-----2---2---|-2---2-----2---2----||-|
|-2---2-----2---2---|-2---2-----2---2----||-|
|-0-0-0-0-0-0-0-0-0-|-0-0-0-0-0-0-0-0-0-o||-|
|-------------------|--------------------||-|


    E E Q     E E E E   E E Q     E E E E
||--------------------|--------------------|
||o-----3-------3-5-3-|-----5-------5-5-3--|
||----0-4-----0-4-5-4-|---0-5-----0-5-5-4--|
||--------------------|--------------------|
||o-2-----------------|-3------------------|
||--------------------|--------------------|
|
|     PM  PM|   PM  PM    PM  PM|   PM  PM
|   E E E S S E E E E   E E E S S E E E E
||--------------------|--------------------|
||o-------------------|--------------------|
||--2---2-----2---2---|-2---2-----2---2----|
||--2---2-----2---2---|-2---2-----2---2----|
||o-0-0-0-0-0-0-0-0-0-|-0-0-0-0-0-0-0-0-0--|
||--------------------|--------------------|


  E E Q     E E E E   E E Q     E E E E
|-------------------|--------------------||-|
|-----1-------5-3---|-----1-------1-1---o||-|
|---0-2-----0-5-4-0-|---0-2-----0-2-2-0--||-|
|-----------------2-|--------------------||-|
|-0-----------------|-0-----------------o||-|
|-------------------|--------------------||-|
|
|   PM  PM|   PM  PM    PM  PM|   PM  PM
| E E E S S E E E E   E E E S S E E E E
|-------------------|--------------------||-|
|-------------------|-------------------o||-|
|-2---2-----2---2---|-2---2-----2---2----||-|
|-2---2-----2---2---|-2---2-----2---2----||-|
|-0-0-0-0-0-0-0-0-0-|-0-0-0-0-0-0-0-0-0-o||-|
|-------------------|--------------------||-|


    E E Q     E E E E   E E Q     E E E E
||--------------------|--------------------|
||o-----3-------3-5-3-|-----5-------5-5-3--|
||----0-4-----0-4-5-4-|---0-5-----0-5-5-4--|
||--------------------|--------------------|
||o-2-----------------|-3------------------|
||--------------------|--------------------|
|
|     PM  PM|   PM        PM  PM|   PM
|   E E E S S E E E E   E E E S S E E E E
||--------------------|--------------------|
||o-------------------|--------------------|
||--2---2-----5---7---|-2---2-----5---7----|
||--2---2-----5---7---|-2---2-----5---7----|
||o-0-0-0-0-0-3-3-5-7-|-0-0-0-0-0-3-3-5-7--|
||--------------------|--------------------|


                     1.                    2.
  E E Q     E E E E   E E Q     E E E E     E E Q     E E E E   Q  Q  H
|-------------------|--------------------||-------------------|------------|
|-----1-------5-3---|-----1-------1-1---o||-----1-------5-3---|-1----------|
|---0-2-----0-5-4-0-|---0-2-----0-2-2-0--||---0-2-----0-5-4-0-|-2----------|
|-----------------2-|--------------------||-----------------2-|-2----------|
|-0-----------------|-0-----------------o||-0-----------------|------------|
|-------------------|--------------------||-------------------|------------|
|
|   PM  PM|   PM        PM  PM|   PM          PM  PM|   PM--|
| E E E S S E E E E   E E E S S E E E E     E E E S S E E E E   Q  Q  H
|-------------------|--------------------||-------------------|------------|
|-------------------|-------------------o||-------------------|------------|
|-2---2-----5---7---|-2---2-----5---7----||-2---2-----5-------|------------|
|-2---2-----5---7---|-2---2-----5---7----||-2---2-----5-3-2---|-2----------|
|-0-0-0-0-0-3-3-5-7-|-0-0-0-0-0-3-3-5-7-o||-0-0-0-0-0-3-----0-|-0----------|
|-------------------|--------------------||-------------------|------------|


Duration Legend
---------------
W - whole; H - half; Q - quarter; E - 8th; S - 16th; T - 32nd; X - 64th; a - acciaccatura
+ - note tied to previous; . - note dotted; .. - note double dotted
Uncapitalized letters represent notes that are staccato (1/2 duration)
Irregular groupings are notated above the duration line
Duration letters will always appear directly above the note/fret number it represents the
duration for.  Duration letters with no fret number below them represent rests.  Multi-
bar rests are notated in the form Wxn, where n is the number of bars to rest for.  Low
melody durations appear below the staff

Tablature Legend
----------------
 h   - hammer-on
 p   - pull-off
 b   - bend
 pb  - pre-bend
 r   - bend release (if no number after the r, then release immediately)
 /\  - slide into or out of (from/to "nowhere")
 s   - legato slide
 S   - shift slide
  - natural harmonic
[n]  - artificial harmonic
n(n) - tapped harmonic
 ~   - vibrato
 tr  - trill
 T   - tap
 TP  - trem. picking
 PM  - palm muting
\n/  - tremolo bar dip; n = amount to dip
 \n  - tremolo bar down
 n/  - tremolo bar up
/n\  - tremolo bar inverted dip
 =   - hold bend; also acts as connecting device for hammers/pulls
 <>  - volume swell (louder/softer)
 x   - on rhythm slash represents muted slash
 o   - on rhythm slash represents single note slash

Misc Legend
-----------
 |  - bar
||  - double bar
||o - repeat start
o|| - repeat end
*|  - double bar (ending)
 :  - bar (freetime)
 $  - Segno
 &  - Coda
Tempo markers -  = BPM(8/16=s8/s16), where s8 = swing 8ths, s16 = swing 16ths


***************************************************************************************
* Generated using Power Tab Editor by Brad Larsen - http://powertab.guitarnetwork.org *
***************************************************************************************

            
            
Suggest correction
Creating personal tab
Creating personal tab
You can edit any tab online and save it as your Personal.

You can edit, replace or remove any tab part or add personal notes – all changes will be seen only by you.

Personal tabs can be accessed anytime from any device, even offline.
Learn more »
Give kudos to tab author, rate the tab!
1 2 3 4 5
comments
print report bad tab
guest
You may want to rate the tab now too:
select rating
Wanna post a correction for this tab? Suggest correction