Oops, an error
Loading. Please wait.

Time Tab

version 2
version 2

Whole song

Interactive

12,800 views 381 this week
no commentswrite comment
1 2 3 4 5
accurate
x 8
add to favorites
launch autoscroll
font size
0
reset
how to read this tab
guitar tuner
Autoscroll
slow
fast
+/-
esc
set tempo
stop
Help us to improve Ultimate-Guitar.com Take our survey!
×
Contributor
Difficulty
intermediate
This song is a very nice one to play on the acoustic guitar, it's chords give a very nice sound.
Time-Hans Zimmer, OST from the 'Inception' movie


e|-------------------3-------------------------------2-------|
B|-1-----------------0---------------0-----------------------|
G|-2---------------------------------0---------------2-------|
D|---------------------------------------------------0-------|
A|-0---------------------------------2-----------------------|
E|-------------------0---------------3-----------------------|

e|-------------------7-------------------------------2-------|
B|-1-----------------8---------------0-----------------------|
G|-2-----------------9---------------0---------------2-------|
D|---------------------------------------------------0-------|
A|-0--------------------------------(2)----------------------|
E|------------------8----------------3-----------------------|

e|------------------3------2-------------------------2--0-------|
B|-1-(1)-0---------------------0----0---------------------------|
G|-2-(2)------------0-(0)-----------0-(0)---2--------2------2---|
D|------------2-----2-(2)-----------------------0----0--(0)-0---|
A|-3-(3)-0----0---------------------2-(2)-----------------------|
E|------------------3-(3)--0---0----3-(3)-------3---------------|

e|---------------------------------------------------2---0--------|
B|-1-(1)--0---------0---------------0-(0)-------------------------|
G|-2-(2)-------------------0--------0-(0)---2--------2--------2---|
D|------------2---------------------------------0----0---0--------|
A|-0-(0)--0---0-----2----------3----2-(2)------------0------------|
E|----------------------------------3-(3)-------------------------|

e|------------------3-(3)--2--0-------------------------------------|
B|-1-(1)-0---------(0)-----------3--0-(0)---------------------------|
G|-2-(2)----2-----------------------0-(0)---2--0--------------------|
D|--------------4--------------------------------2---4--2--0--------|
A|-0-(0)----0-----------------------2-(2)---------0--5--------0-----|
E|------------------0-(0)-(0)-0-----3-(3)------------2--------------|

e|-----------------7---------------------------------2---------------|
B|-1—---0---------------------------0--------------------------------|
G|-2--------2------4---2---0--------0-------2--0---------------------|
D|-------------4---------------3---------------------4--2--0---------|
A|-0--------0-----------------------2----------------5--------0------|
E|--------------------------3-------3----------3---------------------|

e|-8-5h7--5h7-7--5h7-7--5h7-7------|
B|-------5------5------5------5----|
G|-5-------------------------------|
D|---------------------------------|
A|-0-------------------------------|
E|---------------------------------|

e|---5h7--5h7-7--5h7-7--5h7-7------|
B|-8-----5------5------5------5----|
G|---------------------------------|
D|-5-------------------------------|
A|---------------------------------|
E|-0-------------------------------|

e|-7-5h7--5h7-7--5h7-7--5h7-7------|
B|-------5------5------5------5----|
G|-4-------------------------------|
D|---------------------------------|
A|-0-------------------------------|
E|---------------------------------|

e|---3h5--3h5-5--3h5-5--3h5-5-----|
B|-7-----3------3------3-------3--|
G|--------------------------------|
D|-0------------------------------|
A|--------------------------------|
E|--------------------------------|

e|-8-5h7--5h7-7--5h7-7--5h7-7-----|
B|-------5------5------5-------5--|
G|-5------------------------------|
D|--------------------------------|
A|-0------------------------------|
E|--------------------------------|

e|-7-5h7--5h7-7--5h7-7--5h7-7-----|
B|-------5------5------5-------5--|
G|(4)-----------------------------|
D|--------------------------------|
A|-3------------------------------|
E|--------------------------------|

e|-7-5h7--5h7-7--5h7-7--5h7-7-----|
B|-------5------5------5-------5--|
G|-4------------------------------|
D|--------------------------------|
A|-0------------------------------|
E|--------------------------------|

e|---3h5--3h5-5---3h5-5--3h5-5------|
B|-7-----3-------3------3-------3---|
G|----------------------------------|
D|-0--------------------------------|
A|----------------------------------|
E|----------------------------------|

e|-8-----7------5-----2--------5h7--5h7-7--5h7-7--5h7-7-----|
B|---------------------------8-----5------5------5------5---|
G|-5-----4------2-------------------------------------------|
D|--------------------4------5------------------------------|
A|-0--------------------------------------------------------|
E|---------------------------0------------------------------|

e|-7-----5------3-----0--------3h5--3h5-5--3h5-5--3h5-5------|
B|---------------------------7-----3------3------3------3----|
G|-4-----2------0--------------------------------------------|
D|--------------------2------0-------------------------------|
A|-0---------------------------------------------------------|
E|-----------------------------------------------------------|

e|-8-----7------5-----0------7-5h7--5h7-7--5h7-7--5h7-7------|
B|---------------------------------5------5------5------5----|
G|-5-----4------2-----------(4)------------------------------|
D|--------------------2--------------------------------------|
A|-0-------------------------3-------------------------------|
E|-----------------------------------------------------------|

e|-7-----5------3-----0--------3h5--3h5-5--3h5-5--3h5-5----|
B|---------------------------7-----3------3------3---------|
G|-4-----2------0------------------------------------------|
D|--------------------2------0-----------------------------|
A|-0-------------------------------------------------------|
E|---------------------------------------------------------|

e|-8-----7------7-----0--------5h7--5h7-7----2-------------|
B|--------------8------------8-----5------5-------0--------|
G|-5-----4------9------------------------------------------|
D|--------------------2------5---------------4-------------|
A|-0----------------------------------------------2--------|
E|---------------------------0-----------------------------| 
                 
e|-8-----7------7*----2*-------3h5--3h5-5----0---(0)-------|  marked notes are supposed 
B|--------------8-----3------7-----3------3-------0--------|  to be played an octave higher.
G|-5-----4------9-----2---------------------------2--------|  for the electric guitar
D|--------------------0------0---------------2---(2)-------|  this maybe is interesting
A|-0----------------------------------------------0--------|  
E|---------------------------------------------------------|

e|-8-----7------7-----0------7-5h7--5h7-7----5-------------|
B|--------------8------------------5------5----------------|
G|-5-----4------9-----------(4)--------------2----5--------|
D|--------------------2---------------------------2--------|
A|-0-------------------------3--------------------3--------|
E|---------------------------------------------------------|

e|-8----7-------5--------------3h5--3h5-5----0-------------|
B|--------------------1------7-----3------3-------1--------|
G|-5----4-------2-----2---------------------------2--------|
D|---------------------------0---------------2-------------|
A|-0------------------0---------------------------0--------|
E|---------------------------------------------------------|

e|-------------------3-------------------------------2-------|
B|-1-----------------0---------------0-----------------------|
G|-2---------------------------------0---------------2-------|
D|---------------------------------------------------0-------|
A|-0---------------------------------2-----------------------|
E|-------------------0---------------3-----------------------|

e|-------------------7-------------------------------2-------|
B|-1-----------------8---------------0-----------------------|
G|-2-----------------9---------------0---------------2-------|
D|---------------------------------------------------0-------|
A|-0--------------------------------(2)----------------------|
E|-------------------8---------------3-----------------------|

repeat last two bars 4 times ,and on the last d-chord,do something to end it, like

e|-2-----------0--2--3--5-------|
B|----------3-------------------|
G|-2----------------------------|
D|-0----------------------------|
A|------------------------------|
E|------------------------------|



************************************

| (n)  Ghost note
| h    Hammer-on

************************************
Suggest correction What's this?
You can suggest a correction to this tab. Community and Mods will review your correction and vote to approve or reject it.
comments
print report bad tab
I want to post or [tab]
guest
You may want to rate the tab now too:
select rating
Please do not post tabs as comments. Select "correction" instead!