Oops, an error
Loading. Please wait.

Time Tab

version 3
version 3

Whole song

Interactive

861 views 39 this week
no commentswrite comment
1 2 3 4 5
excellent!
x 4
add to favorites
launch autoscroll
font size
0
reset
how to read this tab
guitar tuner
Autoscroll
slow
fast
+/-
esc
set tempo
stop
Help us to improve Ultimate-Guitar.com Take our survey!
×
Author
A compilation of already existing tabs.

    Am    Em    G     D        Am     C     G     D
e|---------3-----------2-----|---------7-----------2-----|
B|---1-----0-----0-----3-----|---1-----8-----0-----3-----|
G|---2-----0-----0-----2-----|---2-----0-----0-----2-----|
D|---2-----------0-----0-----|---2-----------0-----0-----|
A|---0-----------------------|---0-----------------------|
E|---------0-----3-----------|---------8-----3-----------|


     Am       Em       G        D            Am       C         G        D
e|------------3--2-0------------2--0-----|------------7------------------2--0-----|
B|---1--0-----0--------0--------3----3---|---1--0-----8--10-8---0--------3----3---|
G|---2----2---0--------0--2-0---2--------|---2----2---0---------0--2-0---2--------|
D|---2-----------------0--------0--------|---2---------------------------0--------|
A|---0-----------------------------------|---0------------------------------------|
E|------------0--------3-----------------|------------8---------3-----------------|


     Am              Em               G                D
e|-------------------3---3---2---0---------------------2---2---0------------------|
B|--1---1---0--------0----------------0---0------------3-----------3--------------|
G|--2---2---2---2p0--0-0---0---0---0--0---0---2~--0----2-2---2---2---2------------|
D|--2-2---2---2-------------------------0---0---0---0--0--------------------------|
G|--0-----------------------------------------------------------------------------|
E|-------------------0----------------3-------------------------------------------|

e|-------------------7---7------------------------------2---2---0-----------------|
B|--1---1---0--------8-------10---8----0---0------------3-----------3-------------|
G|--2---2---2---2p0--0-0---0----0---0--0---0---2~--0----2-2---2---2---2-----------|
D|--2-2---2---2--------------------------0---0---0---0--0-------------------------|
G|--0-----------------------------------------------------------------------------|
E|-------------------8-----------------3------------------------------------------|

     Am                                    Em           
e|---5h7-7---5h7-7---5h7-7---5h7-7-----|---5h7-7---5h7-7---5h7-7---5h7-7-----|
B|---------5-------5-------5-------5---|---------5-------5-------5-------5---|
G|-------------------------------------|-------------------------------------|
D|-------------------------------------|-------------------------------------|
A|---0---------------------------------|-------------------------------------|
E|-------------------------------------|---0---------------------------------|


     G                                     D
e|---5h7-7---5h7-7---5h7-7---5h7-7-----|---3h5-5---3h5-5---3h5-5---3h5-5-----|
B|---------5-------5-------5-------5---|---------3-------3-------3-------3---|
G|---0---------------------------------|-------------------------------------|
D|-------------------------------------|---0---------------------------------|
A|-------------------------------------|-------------------------------------|
E|-------------------------------------|-------------------------------------|


     Am                                    C
e|---5h7-7---5h7-7---5h7-7---5h7-7-----|---5h7-7---5h7-7---5h7-7---5h7-7-----|
B|---------5-------5-------5-------5---|---------5-------5-------5-------5---|
G|-------------------------------------|---5---------------------------------|
D|-------------------------------------|-------------------------------------|
A|---0---------------------------------|-------------------------------------|
E|-------------------------------------|-------------------------------------|

     G                                   D
e|---5h7-7---5h7-7---5h7-7---5h7-7-----|---3h5-5---3h5-5---3h5-5---3h5-5-----|
B|---------5-------5-------5-------5---|---------3-------3-------3-------3---|
G|---0---------------------------------|-------------------------------------|
D|-------------------------------------|---0---------------------------------|
A|-------------------------------------|-------------------------------------|
E|-------------------------------------|-------------------------------------|


     Am    Em    G     D         Am    C     G     D
e|---------3-----------2-----|---------7-----------2-----|
B|---1-----------0-----3-----|---1-----------0-----3-----|
G|---2-----0-----0-----------|---2-----0-----0-----------|
D|---------------------0-----|---------------------0-----|
A|---0-----------------------|---0-----------------------|
E|---------0-----3-----------|---------8-----3-----------|

Suggest correction
comments
print report bad tab
guest
You may want to rate the tab now too:
select rating
Wanna post a correction for this tab? Suggest correction