Oops, an error
Loading. Please wait.

Mmmbop Tab

version 3
version 3

Whole song

Interactive

by Hanson
3,771 views 1 this week
no commentswrite comment
1 2 3 4 5
x 4
add to favorites
launch autoscroll
font size
0
reset
how to read this tab
guitar tuner
×
Best way to learn
"Mmmbop"
Autoscroll
slow
fast
+/-
esc
set tempo
stop
Author
Difficulty
novice
Hanson
MmmBop

No Capo

This intro tab repeats at various points throughout the song.

     A        E        D        E
e|---0--------0--------2--------0---------| ||
B|-----2--------0--------3--------0-------| ||
G|-2-----2\1------1/2------2\1------1/----|•||
D|----------------------------------------|•||
A|----------------------------------------| ||
E|----------------------------------------| ||


This little riff is the riff the distorted guitar plays. You can mess about with the 
pattern but the power chords are pretty much what he uses.

       A               E          D          E
e|-------------------------------------------------| ||
B|-------------------------------------------------| ||
G|-14---14---14-14----9-9----7---7---7-7----9-9----|•||
D|-14---14---14-14----9-9----7---7---7-7----9-9----|•||
A|-12---12---12-12----7-7----5---5---5-5----7-7----| ||
E|-------------------------------------------------| ||




\ - Slide down
/ - Slide up


Happy playing :)
Suggest correction
comments
print report bad tab
guest
You may want to rate the tab now too:
select rating
Wanna post a correction for this tab? Suggest correction