Oops, an error
Loading. Please wait.

Hanzel Und Gretyl Ist Fur Immer Tab

176 views 1 this week
no commentswrite comment
1 2 3 4 5
3 more votes to show rating
add to favorites
launch autoscroll
font size
0
reset
how to read this tab
guitar tuner
Autoscroll
slow
fast
+/-
esc
set tempo
stop
Help us to improve Ultimate-Guitar.com Take our survey!
×
-------------------------------------------------------------------------------
                "HANZEL UND GRETYL IST FUR IMMER" - Hanzel und Gretyl
-------------------------------------------------------------------------------
Tabbed by:Decayingsinner
E-mail:joeghartman@verizon.net

Tuning: DROP C


Verse:

D|-------------------------------------------------------------------|
A|-------------------------------------------------------------------|
F|-------------------------------------------------------------------|
C|--0-xxx-1-0-xxx-1-0-xxx--1-0----3-0-4------------------------------|
G|--0-xxx-1-0-xxx-1-0-xxx--1-0----3-0-4------------------------------|
C|--0-xxx-1-0-xxx-1-0-xxx--1-0----3-0-4------------------------------|
     will have to play with the strumming here.

Bridge (1:24):
D|-----------------------------------------------------------------|
A|-----------------------------------------------------------------|
F|-----------------------------------------------------------------|
C|--222222--8--222222--8--xx--xxxx---------------------------------|
G|--222222--8--222222--8--xx--xxxx---------------------------------|
C|--222222--8--222222--8--xx--xxxx---------------------------------|

Ending:

Guitar 1:

D|------------------------------------------------------------------|
A|------------------------------------------------------------------|
F|------------------------------------------------------------------|
C|------------------------------------------------------------------|
G|--5555---3-----6/8\6--8-5--10-10-10--4-6-10-----------------------|
C|------------------------------------------------------------------|

Guitar 2:

D|------------------------------------------------------------------|
A|------------------------------------------------------------------|
F|------------------------------------------------------------------|
C|-0000----1--3----0---5---0---1---3--------------------------------|
G|-0000----1--3----0---5---0---1---3--------------------------------|
C|-0000----1--3----0---5---0---1---3--------------------------------|

x2
Verse


D|---------------------------------------------------------------------------|
A|---------------------------------------------------------------------------|
F|---------------------------------------------------------------------------|
C|---------------------------------------------------------------------------|
G|---------------------------------------------------------------------------|
C|---------------------------------------------------------------------------|

D|---------------------------------------------------------------------------|
A|---------------------------------------------------------------------------|
F|---------------------------------------------------------------------------|
C|---------------------------------------------------------------------------|
G|---------------------------------------------------------------------------|
C|---------------------------------------------------------------------------|


************************************

| /   slide up
| \   slide down
| h   hammer-on
| p   pull-off
| ~   vibrato
| +   harmonic
| x   Mute note
| b   Bend
| pb  Pre-bend
| br  Bend release
| pbr Pre-bend release
| brb Bend release bend

************************************
Suggest correction
Give kudos to tab author, rate the tab!
1 2 3 4 5
comments
print report bad tab
guest
You may want to rate the tab now too:
select rating
Wanna post a correction for this tab? Suggest correction