Oops, an error
Loading. Please wait.

Che Guevara Tab

76 views 1 this week
no commentswrite comment
1 2 3 4 5
3 more votes to show rating
add to favorites
launch autoscroll
font size
0
reset
how to read this tab
guitar tuner
Autoscroll
slow
fast
+/-
esc
set tempo
stop
Help us to improve Ultimate-Guitar.com Take our survey!
×
Author
About this tab version
This is the first solo tab for this song. Was this info helpful? Yes No
[Solo] 

(niin kuin minä sen kuulen ja soitan)

e|---------------------------------------------|
B|------------6b--6----------------------6-----|
G|--6b--6------------5--------5-6-5-6-8----6---|
D|------------------------6-8------------------|
A|---------------------------------------------|
E|---------------------------------------------|

e|--------------------------------------------------------------------|
B|---6--6b--6---------6b--6--------------------6-------6--6b--6---/18-|  <- En ole ihan varma viimeisestä
G|-6------------6------------5-------5-6-5-6-8---6---6----------------|        sävelestä.
D|-------------------------------6-8----------------------------------|
A|--------------------------------------------------------------------|
E|--------------------------------------------------------------------|


************************************

| b  Bend
| /  Slide up 

************************************
Suggest correction
Give kudos to tab author, rate the tab!
1 2 3 4 5
comments
print report bad tab
guest
You may want to rate the tab now too:
select rating
Wanna post a correction for this tab? Suggest correction