Oops, an error
Loading. Please wait.

Kaunis Ihminen Chords

28 views 15 this week
no commentswrite comment
1 2 3 4 5
3 more votes to show rating
add to favorites
launch autoscroll
font size
0
reset
transpose
0
reset
display chords
guitar tuner
Autoscroll
slow
fast
+/-
esc
set tempo
stop
Help us to improve Ultimate-Guitar.com Take our survey!
×
Author
Difficulty
Capo
novice
4th fret
[Intro]
Am Em F C E

[Verse]
Am              Em
  Entäs nyt kun kyntänyt
          F
  on peto pihamaan,
            C         E
  polttanut tutuimman tien
Am                 Em
  ja pelko varkain hiipinyt
           F
  patjaksi hetekaan?
           C       E
  Muuttiko asumaan lie?

[Pre-chorus]
F               Am
  Ja sattumaan taas
               Gm        Bb
  sun täytyisi luottaa.

[Chorus]
  F              G
  Tapahtuu, mitä tapahtuu,
         Am
  muista että oot
         C
  kaunis ihminen.

  Vielä,
  F
  kasvaa puu
         G
  juuret vahvistuu
         Am
  taivaankantta päin
        C
  kätes kurottaa.

  Kyllä
  F
  usko niin
  E
  tai
             N.C. Am Em F C E
  vähitellen lakastut.


[verse]
Am
  Entäs nyt kun
  Em
  särkynyt
           F
  kompassi pyörii
             C     E
  ja allakka autioituu?
Am               Em
  Vartes viimaan väsynyt,
              F
  ja kohtalon juoniin,
                C        E
  sen metkuista kuivunut suu.

[Pre-chorus]
F               Am
  Ja sattumaan taas
               Gm        Bb
  sun täytyisi luottaa.

[Chorus]
  F              G
  Tapahtuu, mitä tapahtuu,
         Am
  muista että oot
         C
  kaunis ihminen.

  Vielä,
  F
  kasvaa puu
         G
  juuret vahvistuu
         Am
  taivaankantta päin
        C
  kätes kurottaa.

  Kyllä
  F
  usko niin
  E
  tai
             N.C. Solo
  vähitellen lakastut.

[Solo]

e|-1--1--1--0--0--0--0--0--0--0--0-----------|
B|----------------------------------3--3--3--|
G|--2--2--2--2--2--2--2--2--2--2--2--2--2--2-|  x5
D|-------------------------------------------|
A|-------------------------------------------|
E|-------------------------------------------|


e|-1--1--1--0--0--0--0--0--0--0--0--1--1--2--2--3--3--5--5--|
B|----------------------------------------------------------|
G|--2--2--2--2--2--2--2--2--2--2--2--2--2--2--2--2--2--2--2-|  
D|----------------------------------------------------------|
A|----------------------------------------------------------|
E|----------------------------------------------------------|
   

[Outro]
Bb               C
  Tapahtuu, mitä tapahtuu,
         Dm
  muista että oot
         F
  kaunis ihminen.

  Vielä,
  Bm
  kasvaa puu
         C
  juuret vahvistuu
         Dm
  taivaankantta päin
        F
  kätes kurottaa.

  Kyllä
Bm               C         Dm    F
  Tapahtuu, mitä tapahtuu

Bm               C
  Tapahtuu, mitä tapahtuu,
         Dm
  muista että oot
         F
  kaunis ihminen

  siellä.
  Bb
  Usko niin,
  A
  usko niin
     A           A   Dm  
  tai vähitellen lakastut.  (once and let ring)
Suggest correction
Give kudos to tab author, rate the tab!
1 2 3 4 5
comments
print report bad tab
guest
You may want to rate the tab now too:
select rating
Wanna post a correction for this tab? Suggest correction