Oops, an error
Loading. Please wait.

Sinun Vaikka Hajoat Acoustic chords

version 1
version 1

Whole song

595 views 3 this week
no commentswrite comment
1 2 3 4 5
3 more votes to show rating
add to favorites
×
Save as Personal and add changes to this tab that will be seen only by you. Learn more ›
×
You can save this tab as Personal to edit and correct it or add notes. All changes will be seen only by you. Learn more »
launch autoscroll
font size
0
reset
transpose
0
reset
simplify chords
display chords
guitar tuner
edit
Autoscroll
slow
fast
+/-
esc
set tempo
stop
Strumming
There is no strumming pattern for this song yet. and get +5 IQ
Akustinen versio alkuperäisestä kappaleesta.

Tabs are relative to the capo (1st fret)
Tabit menee capon mukaan (capo 1 välissä)

Chords used:
FM7:     xx3210
D7sus2:  xx0210
G:       320003
Am7:     x02010


[Intro]

e|------------------------------------------------|
B|------------------------------------------------|
G|------------------------------------------------|
D|------------------------------------------------|  (Guitar 1)  \
A|-3--3--3--7--7--7--7--7--5--5--5--3--3--3--3--3-|               \
E|-1--1--1--5--5--5--5--5--3--3--3--1--1--1--1--1-|                \
                                                                    \
                                                                     | (x2  0:45 - 1:00)
e|-5--------8--------------7--------5-------------|                 /
B|------------------------------------------------|                /
G|------------------------------------------------|               /
D|------------------------------------------------|  (Guitar 2)  /
A|------------------------------------------------|
E|------------------------------------------------|


[Verse 1]

e|------------------------------------------------------------------------------|
B|------------------------------------------------------------------------------|
G|------------------------------------------------------------------------------|
D|------------------------------------------------------------------------------|  (Guitar 1)
A|-3----3----3----7----7----7----7----7----5----5----5----3----3----3----3----3-|
E|-1----1----1----5----5----5----5----5----3----3----3----1----1----1----1----1-|


e|-5--------------8------------------------7--------------5---------------------|
B|------------------------------------------------------------------------------|
G|------------------------------------------------------------------------------|
D|------------------------------------------------------------------------------|  (Guitar 2)
A|------------------------------------------------------------------------------|
E|------------------------------------------------------------------------------|

    Olet  vielä   lauluni                    lempeä   melodia
    Vaikk' on vireet      vinossa     ja     nuotit    nuokkuvat
  FM7             Am7                      G              FM7
    Kuin   tuo    pihapuu       ihminen    puuskissa   taipuu, mutta hei
  FM7             Am7                      G              FM7
  Siinä   vielä   se   seisoo   enkä  mä   anna  sen   kaatuu


[Chorus]
        Am7              G
Mä olen sinun vaikka hajoat
                            FM7
Vaikka kivun koskeen sä vajoat
             Am7           G
Huuda mulle, rimpuile, sekoa
           FM7     D7sus2
Ei otteeni natise
        Am7              G
Mä olen sinun vaikka hajoat
                           FM7
Vaikka vihan kuohuihin vajoat
            Am7          G
Anna tulla, tappele, kiroa
            FM7
Ei ranteeni vapise


[Interlude]

e|------------------------------------------------|
B|------------------------------------------------|
G|------------------------------------------------|
D|------------------------------------------------|  (Guitar 1)
A|-3--3--3--7--7--7--7--7--5--5--5--3--3--3--3--3-|
E|-1--1--1--5--5--5--5--5--3--3--3--1--1--1--1--1-|


e|-5--------8--------------7--------5-------------|
B|------------------------------------------------|
G|------------------------------------------------|
D|------------------------------------------------|  (Guitar 2)
A|------------------------------------------------|
E|------------------------------------------------|



[Verse 2]

e|---------------------------------------------------------------------------------------------|
B|---------------------------------------------------------------------------------------------|
G|---------------------------------------------------------------------------------------------|
D|---------------------------------------------------------------------------------------------|  (Guitar 1)
A|-3-----3-----3-----7-----7-----7-----7-----7-----5-----5-----5-----3-----3-----3-----3-----3-|
E|-1-----1-----1-----5-----5-----5-----5-----5-----3-----3-----3-----1-----1-----1-----1-----1-|


e|-5-----------------8------------------------7----------------------5-------------------------|
B|---------------------------------------------------------------------------------------------|
G|---------------------------------------------------------------------------------------------|
D|---------------------------------------------------------------------------------------------|  (Guitar 2)
A|---------------------------------------------------------------------------------------------|
E|---------------------------------------------------------------------------------------------|

    Olet    vielä    tauluni                    maisema       levollisin
    Vaikk' on värit    vinksallaan      ja      naarmuilla        kanvaasi
  FM7                Am7                      G                      FM7
    Kuin     tuo     pihapuu     ihminen      iltaansa            haipuu, mutta hei
  FM7                Am7                      G                      FM7
    Siinä   vielä    sä   seisot   enkä   mä  anna       sun      kaatuu


[Chorus]
        Am7              G
Mä olen sinun vaikka hajoat
                            FM7
Vaikka kivun koskeen sä vajoat
             Am7           G
Huuda mulle, rimpuile, sekoa
           FM7     D7sus2
Ei otteeni natise
        Am7              G
Mä olen sinun vaikka hajoat
                           FM7
Vaikka vihan kuohuihin vajoat
            Am7          G
Anna tulla, tappele, kiroa
            FM7
Ei ranteeni vapise


[Interlude]
Am7  G    G    FM7
Am7  G    FM7  D7sus2
Am7  G    G    FM7
Am7  G    FM7  D7sus2


[Bridge]
FM7          Am7     G            FM7                   \
   Olet aina lauluni, ikuinen melodia                    \
FM7          Am7                      G           FM7     |  strum once / soita jokainen sointu kerran
   Ja kunhan muistat hengittää, mä en anna sun kaatua    /


[Chorus]
        Am7              G
Mä olen sinun vaikka hajoat
                            FM7
Vaikka kivun koskeen sä vajoat
             Am7           G
Huuda mulle, rimpuile, sekoa
           FM7     D7sus2
Ei otteeni natise
        Am7              G
Mä olen sinun vaikka hajoat
                           FM7
Vaikka vihan kuohuihin vajoat
            Am7          G
Anna tulla, tappele, kiroa
            FM7     D7sus2
Ei ranteeni vapise


[Outro]
         Am7              G   
(Mä olen sinun vaikka hajoat)
                       FM7

              Am7           G
(Huuda mulle, rimpuile, sekoa)
           FM7     D7sus2

         Am7              G
(Mä olen sinun vaikka hajoat)
                       FM7

             Am7          G
(Anna tulla, tappele, kiroa)
           FM7     D7sus2     FM7

            
            
Suggest correction
Creating personal tab
Creating personal tab
You can edit any tab online and save it as your Personal.

You can edit, replace or remove any tab part or add personal notes – all changes will be seen only by you.

Personal tabs can be accessed anytime from any device, even offline.
Learn more »
Give kudos to tab author, rate the tab!
1 2 3 4 5
comments
print report bad tab
guest
You may want to rate the tab now too:
select rating
Wanna post a correction for this tab? Suggest correction