Oops, an error
Loading. Please wait.

Baby Jesus Jelly Boy Tab

76 views 3 this week
no commentswrite comment
1 2 3 4 5
2 more votes to show rating
add to favorites
launch autoscroll
font size
0
reset
how to read this tab
guitar tuner
Autoscroll
slow
fast
+/-
esc
set tempo
stop
Help us to improve Ultimate-Guitar.com Take our survey!
×
Author
Difficulty
Capo
novice
2nd fret
Capo 2
Tab by wmewett

start with this, it has 2 extra notes
e|-----------------------------------|
B|-----------------------------------|
G|-2-1-----1---------------1---2---1-|
D|-------2---2-----2-----2---2-------| 
A|-----2-------2-------2---------2---|
E|---0---------------0---------------|

repeat this for the rest of the song:
-------------------------------------

e|---------------------------------| 
B|---------------------------------|
G|-------1---------------1---2---1-|
D|-----2---2-----2-----2---2-------| x6
A|---2-------2-------2---------2---|
E|-0---------------0---------------|

e|---------------------------------|
B|-------0---------------0---------|
G|-----2----2---2------2----2---2--|
D|---2--------2------2--------2----| x1
A|-0---------------0---------------|
E|---------------------------------|

-------------------------------------
Suggest correction
Give kudos to tab author, rate the tab!
1 2 3 4 5
comments
print report bad tab
guest
You may want to rate the tab now too:
select rating
Wanna post a correction for this tab? Suggest correction