Oops, an error
Loading. Please wait.

Dui intro tab

version 1
version 1

Intro

Whole song

569 views 1 this week
2 commentsread comments
1 2 3 4 5
x 3
add to favorites
×
Save as Personal and add changes to this tab that will be seen only by you. Learn more ›
×
You can save this tab as Personal to edit and correct it or add notes. All changes will be seen only by you. Learn more »
launch autoscroll
font size
0
reset
how to read this tab
guitar tuner
edit
Autoscroll
slow
fast
+/-
esc
set tempo
stop
Author
Difficulty
e|12-12-12---9-9--7-7--5-5-5-----------------------------|
B|12-12-12---9-9--7-7--5-5-5---------10--10-10--12-14-12-|
G|12-12-12---9-9--7-7--5-5-5-----9-11--------------------|
D|-------------------------------------------------------|
A|-------------------------------------------------------|
E|-------------------------------------------------------|

e|12-12-12---9-9--7-7--5-5-5----------------------------|
B|12-12-12---9-9--7-7--5-5-5---------10-----10---12-----|
G|12-12-12---9-9--7-7--5-5-5-----9-11---9-11------------|
D|------------------------------------------------------|
A|------------------------------------------------------|
E|------------------------------------------------------|

http://www.harmarsuperstar.com

            
            
Suggest correction
Creating personal tab
Creating personal tab
You can edit any tab online and save it as your Personal.

You can edit, replace or remove any tab part or add personal notes – all changes will be seen only by you.

Personal tabs can be accessed anytime from any device, even offline.
Learn more »
Give kudos to tab author, rate the tab!
1 2 3 4 5
comments
print report bad tab
2 comments total.
0 reply
howlie 83 Aug 17, 2006 09:28 AM

dunno sounds wrong... my guitar is proving hard to tune tho...

0 reply
kevweldon 41 Sep 01, 2006 11:34 AM

If you jst play the B and e strings it sounds much better.

guest
You may want to rate the tab now too:
select rating
Wanna post a correction for this tab? Suggest correction