Oops, an error
Loading. Please wait.

Stronger bass

by Hard-Fi
336 views 1 this week
1 commentread comment
1 2 3 4 5
3 more votes to show rating
add to favorites
×
Save as Personal and add changes to this tab that will be seen only by you. Learn more ›
×
You can save this tab as Personal to edit and correct it or add notes. All changes will be seen only by you. Learn more »
launch autoscroll
font size
0
reset
guitar tuner
edit
Autoscroll
slow
fast
+/-
esc
set tempo
stop
Hard-Fi - Stronger

Bass Standard Tuning (E-A-D-G)





Intro
G|--------------------------------------------|
D|---------------------4-4-4-4-4h-------------|
A|-0-0-0-0-0h5-5-5-5-5h----------2-2-2-2-2h---|
E|------------------------------------------x1|


Verse
G|--------------------------------------------|
D|---------------------4-4-4-4-4h-------------|
A|-0-0-0-0-0h5-5-5-5-5h----------2-2-2-2-2h---|
E|------------------------------------------x2|

G|-------------------------------------|
D|---------2-2-2-2---------------------|
A|-0-0-0-0---------0-0-0-0-0-0-(0-0)---|
E|-----------------------------------x1|


Pre-Chorus
G|--------------------------------------|
D|----------------------------2-2-2-2---|
A|-0012-2-2-2-2-2-223-4-4-4-4-----------|
E|------------------------------------x1|


Chorus
G|-------------------------------------------------------|
D|-------------------------------------------------------|
A|-0-0-0-0-0h5-5-5-5-5h0-0-0-0-0h5-5-5-5-5h--------------|
E|-----------------------------------------2-2-2-2 2h--x1|

G|--------------------------------------------------|
D|--------------------------------------------------|
A|2-2-2-2-2h0-0-0-0-0h5-5-5-5-5h0-0-0-0-0-0-0-0-0---|
E|------------------------------------------------x1|


Verse (x1)

Pre-Chorus (x1)

Chorus (last note A|-2-|) (x1)


Bridge
G|-----------------------------------|
D|-----------------------------------|
A|---------------0-2-2-2-2-2-2-2-0---|
E|-2-2-2-2-2-2-2-------------------x1|

G|-----------------------------------|
D|-------------------------2-2-2-2---|
A|---------------0-4-4-4-4-----------|
E|-2-2-2-2-2-2-2-------------------x1|


Verse (x1)

Pre-Chorus (x1)


Final Chorus
G|-------------------------------------------------------|
D|-------------------------------------------------------|
A|-0-0-0-0-0h5-5-5-5-5h0-0-0-0-0h5-5-5-5-5h--------------|
E|-----------------------------------------2-2-2-2 2h--x1|

G|-------------------------------------------|
D|-------------------------------------------|
A|2-2-2-2-2h0-0-0-0-0h5-5-5-5-5h0-/12(x16)---|
E|-----------------------------------------x1|

G|--------------------|------------------------|
D|--------------------|------------------------|
A|-0-0-0-0-/12(x12)---|-0-0-0-0-/12-12-12-12---|
E|------------------x1|----------------------x4|


End on
G|----|
D|----|
A|-0~-|
E|----|


Official Website of "Hard-Fi"
http://www.hard-fi.com/

            
            
Suggest correction
Creating personal tab
Creating personal tab
You can edit any tab online and save it as your Personal.

You can edit, replace or remove any tab part or add personal notes – all changes will be seen only by you.

Personal tabs can be accessed anytime from any device, even offline.
Learn more »
Give kudos to tab author, rate the tab!
1 2 3 4 5
comments
print report bad tab
1 comment total.
0 reply
Briscoe06 10 Nov 11, 2006 12:17 AM

(Chords are mostly about a bar long)

e-7---7---7---7---6---7---10---7-|
B-9---7---9---7---8---9----8---7-|
G-9---8---9---8---9---9----7---8-|
D--------------------------------|
A--------------------------------|
E--------------------------------|

e-7---7-------8---7--(7)--8---7---7---7-|
B--8---7-----8----8--(8)--8---8---7---8-|
G---9---8---9-----7--(7)--9---7---8---9-|
D---------------------------------------|
A---------------------------------------|
E---------------------------------------|

guest
Wanna post a correction for this tab? Suggest correction