Oops, an error
Loading. Please wait.

Who The Hell Do You Think You Are Bass Tab

25 views 3 this week
no commentswrite comment
1 2 3 4 5
3 more votes to show rating
add to favorites
launch autoscroll
font size
0
reset
guitar tuner
Autoscroll
slow
fast
+/-
esc
set tempo
stop
Help us to improve Ultimate-Guitar.com Take our survey!
×
Author
Difficulty
Intro (Guitar Only- Just the verse riff x4)

Verse                                                            x4
G|-----------------------------------------------------------------|
D|-----------------------------------------------------------------|
A|-2-2-2-2-2-2-2-2-2-2-2-2-2-2-2-2-----------------0-0-0-0-0-0-0-0-|
E|---------------------------------3-3-3-3-3-3-3-3-----------------|


PreChorus             ("Who The Hell You Think You Are...")
G|----------------------------------------------------------------------------|
D|----------------------------------------------------------------------------|
A|-2-2-2-2-2--4--5--6--7-7-7-7-----------2-2-2-2-2--4--5--6--7-7-7-7----------|
E|-----------------------------7-7-7-7-------------------------------7-7-7-7--|


Chorus ("Pour Yourself A Glass Of Port...")
G|-------------------------------------------------------------------------------------|
D|-------------------------------------------------------------------------------------|
A|-6/7-7--6/7-7----------6/7-7--6/7-7----------6/7-7--6/7-7----------0-0-0-0-0---------|
E|---------------7---7-----------------7---7-----------------7---7--------------2-2-2--|


Verse                                                            x4
G|-----------------------------------------------------------------|
D|-----------------------------------------------------------------|
A|-2-2-2-2-2-2-2-2-2-2-2-2-2-2-2-2-----------------0-0-0-0-0-0-0-0-|
E|---------------------------------3-3-3-3-3-3-3-3-----------------|


PreChorus             ("Who The Hell You Think You Are...")
G|----------------------------------------------------------------------------|
D|----------------------------------------------------------------------------|
A|-2-2-2-2-2--4--5--6--7-7-7-7-----------2-2-2-2-2--4--5--6--7-7-7-7----------|
E|-----------------------------7-7-7-7-------------------------------7-7-7-7--|


Chorus ("Pour Yourself A Glass Of Port...")
G|-------------------------------------------------------------------------------------|
D|-------------------------------------------------------------------------------------|
A|-6/7-7--6/7-7----------6/7-7--6/7-7----------6/7-7--6/7-7----------0-0-0-0-0---------|
E|---------------7---7-----------------7---7-----------------7---7--------------2-2-2--|


Solo                                                                        x2
G|----------------------------------------------------------------------------|
D|----------------------------------------------------------------------------|
A|-2-2-2-2-2--4--5--6--7-7-7-7-----------2-2-2-2-2--4--5--6--7-7-7-7----------|
E|-----------------------------7-7-7-7-------------------------------7-7-7-7--|


Verse                                                            x4
G|-----------------------------------------------------------------|
D|-----------------------------------------------------------------|
A|-2-2-2-2-2-2-2-2-2-2-2-2-2-2-2-2-----------------0-0-0-0-0-0-0-0-|
E|---------------------------------3-3-3-3-3-3-3-3-----------------|


PreChorus             ("Who The Hell You Think You Are...")
G|----------------------------------------------------------------------------|
D|----------------------------------------------------------------------------|
A|-2-2-2-2-2--4--5--6--7-7-7-7-----------2-2-2-2-2--4--5--6--7-7-7-7----------|
E|-----------------------------7-7-7-7-------------------------------7-7-7-7--|


Chorus ("Pour Yourself A Glass Of Port...")
G|-------------------------------------------------------------------------------------|
D|-------------------------------------------------------------------------------------|
A|-6/7-7--6/7-7----------6/7-7--6/7-7----------6/7-7--6/7-7----------0-0-0-0-0---------|
E|---------------7---7-----------------7---7-----------------7---7--------------2-2-2--|


Outro                                                                       x2
G|----------------------------------------------------------------------------|
D|----------------------------------------------------------------------------|
A|-2-2-2-2-2--4--5--6--7-7-7-7-----------2-2-2-2-2--4--5--6--7-7-7-7----------|
E|-----------------------------7-7-7-7-------------------------------7-7-7-7--|


****************************************************************************************
 / =  Slideup

Great tune by Hugh Dillon (The Headstones) and B.C.'s Swamp Baby. Lyrics were by Michael Tuner (Who wrote the
book of which the film and subsequent soundtrack is based on)
Suggest correction
Give kudos to tab author, rate the tab!
1 2 3 4 5
comments
print report bad tab
guest
You may want to rate the tab now too:
select rating
Wanna post a correction for this tab? Suggest correction