Oops, an error
Loading. Please wait.

Who The Hell Do You Think You Are Tab

10 views 1 this week
no commentswrite comment
1 2 3 4 5
3 more votes to show rating
add to favorites
launch autoscroll
font size
0
reset
how to read this tab
guitar tuner
Autoscroll
slow
fast
+/-
esc
set tempo
stop
Help us to improve Ultimate-Guitar.com Take our survey!
×
Intro (Lead Guitar plays this)                                   x4
E|-----------------------------------------------------------------|
B|-----------------------------------------------------------------|
G|-4-4-4-4-4-4-4-4-4-4-4-4-4-4-4-4-----------------2-2-2-2-2-2-2-2-|
D|-4-4-4-4-4-4-4-4-4-4-4-4-4-4-4-4-5-5-5-5-5-5-5-5-2-2-2-2-2-2-2-2-|
A|-2-2-2-2-2-2-2-2-2-2-2-2-2-2-2-2-5-5-5-5-5-5-5-5-0-0-0-0-0-0-0-0-|
E|---------------------------------3-3-3-3-3-3-3-3-----------------|

(Rhythm Plays This)                                               x4
E|-----------------------------------------------------------------|
B|-----------------------------------------------------------------|
G|-4-4-4-4-4-4-4-4-4-4-4-4-4-4-4-4-4-4-4-4-4-4-4-4-4-4-4-4-4-4-4-4-|
D|-4-4-4-4-4-4-4-4-4-4-4-4-4-4-4-4-4-4-4-4-4-4-4-4-4-4-4-4-4-4-4-4-|
A|-2-2-2-2-2-2-2-2-2-2-2-2-2-2-2-2-2-2-2-2-2-2-2-2-2-2-2-2-2-2-2-2-|
E|-----------------------------------------------------------------|


Verse                                                            x4
E|-----------------------------------------------------------------|
B|-----------------------------------------------------------------|
G|-4-4-4-4-4-4-4-4-4-4-4-4-4-4-4-4-----------------2-2-2-2-2-2-2-2-|
D|-4-4-4-4-4-4-4-4-4-4-4-4-4-4-4-4-5-5-5-5-5-5-5-5-2-2-2-2-2-2-2-2-|
A|-2-2-2-2-2-2-2-2-2-2-2-2-2-2-2-2-5-5-5-5-5-5-5-5-0-0-0-0-0-0-0-0-|
E|---------------------------------3-3-3-3-3-3-3-3-----------------|


PreChorus             ("Who The Hell You Think You Are...")
E|---------------------------------------------------------------------------|
B|---------------------------------------------------------------------------|
G|-4-4-4-4-4--6--7--8--9-9-9-9-----------4-4-4-4-4--6--7--8--9-9-9-9---------|
D|-4-4-4-4-4--6--7--8--9-9-9-9-9-9-9-9---4-4-4-4-4--6--7--8--9-9-9-9-9-9-9-9-|
A|-2-2-2-2-2--4--5--6--7-7-7-7-9-9-9-9---2-2-2-2-2--4--5--6--7-7-7-7-9-9-9-9-|
E|-----------------------------7-7-7-7-------------------------------7-7-7-7-|


Chorus ("Pour Yourself A Glass Of Port...")
E|------------------------------------------------------------------------------------|
B|------------------------------------------------------------------------------------|
G|-8/9-9--8/9-9----------8/9-9--8/9-9----------8/9-9--8/9-9----------2-2-2-2-2--------|
D|-8/9-9--8/9-9--9---9---8/9-9--8/9-9--9---9---8/9-9--8/9-9--9---9---2-2-2-2-2--4-4-4-|
A|-6/7-7--6/7-7--9---9---6/7-7--6/7-7--9---9---6/7-7--6/7-7--9---9---0-0-0-0-0--4-4-4-|
E|---------------7---7-----------------7---7-----------------7---7--------------2-2-2-|


Verse                                                            x4
E|-----------------------------------------------------------------|
B|-----------------------------------------------------------------|
G|-4-4-4-4-4-4-4-4-4-4-4-4-4-4-4-4-----------------2-2-2-2-2-2-2-2-|
D|-4-4-4-4-4-4-4-4-4-4-4-4-4-4-4-4-5-5-5-5-5-5-5-5-2-2-2-2-2-2-2-2-|
A|-2-2-2-2-2-2-2-2-2-2-2-2-2-2-2-2-5-5-5-5-5-5-5-5-0-0-0-0-0-0-0-0-|
E|---------------------------------3-3-3-3-3-3-3-3-----------------|


PreChorus             ("Who The Hell You Think You Are...")
E|---------------------------------------------------------------------------|
B|---------------------------------------------------------------------------|
G|-4-4-4-4-4--6--7--8--9-9-9-9-----------4-4-4-4-4--6--7--8--9-9-9-9---------|
D|-4-4-4-4-4--6--7--8--9-9-9-9-9-9-9-9---4-4-4-4-4--6--7--8--9-9-9-9-9-9-9-9-|
A|-2-2-2-2-2--4--5--6--7-7-7-7-9-9-9-9---2-2-2-2-2--4--5--6--7-7-7-7-9-9-9-9-|
E|-----------------------------7-7-7-7-------------------------------7-7-7-7-|


Chorus ("Pour Yourself A Glass Of Port...")
E|------------------------------------------------------------------------------------|
B|------------------------------------------------------------------------------------|
G|-8/9-9--8/9-9----------8/9-9--8/9-9----------8/9-9--8/9-9----------2-2-2-2-2--------|
D|-8/9-9--8/9-9--9---9---8/9-9--8/9-9--9---9---8/9-9--8/9-9--9---9---2-2-2-2-2--4-4-4-|
A|-6/7-7--6/7-7--9---9---6/7-7--6/7-7--9---9---6/7-7--6/7-7--9---9---0-0-0-0-0--4-4-4-|
E|---------------7---7-----------------7---7-----------------7---7--------------2-2-2-|


Solo                                                                       x2
E|---------------------------------------------------------------------------|
B|---------------------------------------------------------------------------|
G|-4-4-4-4-4--6--7--8--9-9-9-9-----------4-4-4-4-4--6--7--8--9-9-9-9---------|
D|-4-4-4-4-4--6--7--8--9-9-9-9-9-9-9-9---4-4-4-4-4--6--7--8--9-9-9-9-9-9-9-9-|
A|-2-2-2-2-2--4--5--6--7-7-7-7-9-9-9-9---2-2-2-2-2--4--5--6--7-7-7-7-9-9-9-9-|
E|-----------------------------7-7-7-7-------------------------------7-7-7-7-|


Verse                                                            x4
E|-----------------------------------------------------------------|
B|-----------------------------------------------------------------|
G|-4-4-4-4-4-4-4-4-4-4-4-4-4-4-4-4-----------------2-2-2-2-2-2-2-2-|
D|-4-4-4-4-4-4-4-4-4-4-4-4-4-4-4-4-5-5-5-5-5-5-5-5-2-2-2-2-2-2-2-2-|
A|-2-2-2-2-2-2-2-2-2-2-2-2-2-2-2-2-5-5-5-5-5-5-5-5-0-0-0-0-0-0-0-0-|
E|---------------------------------3-3-3-3-3-3-3-3-----------------|


PreChorus             ("Who The Hell You Think You Are...")
E|---------------------------------------------------------------------------|
B|---------------------------------------------------------------------------|
G|-4-4-4-4-4--6--7--8--9-9-9-9-----------4-4-4-4-4--6--7--8--9-9-9-9---------|
D|-4-4-4-4-4--6--7--8--9-9-9-9-9-9-9-9---4-4-4-4-4--6--7--8--9-9-9-9-9-9-9-9-|
A|-2-2-2-2-2--4--5--6--7-7-7-7-9-9-9-9---2-2-2-2-2--4--5--6--7-7-7-7-9-9-9-9-|
E|-----------------------------7-7-7-7-------------------------------7-7-7-7-|


Chorus ("Pour Yourself A Glass Of Port...")
E|------------------------------------------------------------------------------------|
B|------------------------------------------------------------------------------------|
G|-8/9-9--8/9-9----------8/9-9--8/9-9----------8/9-9--8/9-9----------2-2-2-2-2--------|
D|-8/9-9--8/9-9--9---9---8/9-9--8/9-9--9---9---8/9-9--8/9-9--9---9---2-2-2-2-2--4-4-4-|
A|-6/7-7--6/7-7--9---9---6/7-7--6/7-7--9---9---6/7-7--6/7-7--9---9---0-0-0-0-0--4-4-4-|
E|---------------7---7-----------------7---7-----------------7---7--------------2-2-2-|


Outro                                                                      x2
E|---------------------------------------------------------------------------|
B|---------------------------------------------------------------------------|
G|-4-4-4-4-4--6--7--8--9-9-9-9-----------4-4-4-4-4--6--7--8--9-9-9-9---------|
D|-4-4-4-4-4--6--7--8--9-9-9-9-9-9-9-9---4-4-4-4-4--6--7--8--9-9-9-9-9-9-9-9-|
A|-2-2-2-2-2--4--5--6--7-7-7-7-9-9-9-9---2-2-2-2-2--4--5--6--7-7-7-7-9-9-9-9-|
E|-----------------------------7-7-7-7-------------------------------7-7-7-7-|


****************************************************************************************
 / =  Slideup

There is 2 guitars in here. Really it only makes a difference on the Intro
So on the Intro you're either playing the Verse Riff or you're simply strumming the 1 note.
Suggest correction
Give kudos to tab author, rate the tab!
1 2 3 4 5
comments
print report bad tab
guest
You may want to rate the tab now too:
select rating
Wanna post a correction for this tab? Suggest correction