Oops, an error
Loading. Please wait.

Sensitive To The Light tab

2,125 views 1 this week
2 commentsread comments
1 2 3 4 5
2 more votes to show rating
add to favorites
×
Save as Personal and add changes to this tab that will be seen only by you. Learn more ›
×
You can save this tab as Personal to edit and correct it or add notes. All changes will be seen only by you. Learn more »
launch autoscroll
font size
0
reset
how to read this tab
guitar tuner
edit
Autoscroll
slow
fast
+/-
esc
set tempo
stop
Difficulty
Amazing band, amazing song, and fun as hell to play. I dont know the solo so.. improvise 
with abit of Van Halen tapping?? I dont know..


Listening to the song while playing this to get timing and everything..


INTRO:

[00.00 - 00.08]

|-----------------------|
|-----------------------|
|-----------------------|
|-----------------------|
|-----------------------|
|--0-0-0-0-0------------| x4

[00.08 - 00.22]

|-------------------------|
|-------------------------|
|-------------------------|
|-------------7---7---7---|
|-------------5---5---5---|
|--0-0-0-0-0--------------| x8

|--------------------|
|--------------------|
|--------------------|
|-3-----5~-----------|
|-1--3--3~-----------|
|----1---------------|

[00.27 - 00.41]

|-------------------------|--------------------|
|-------------------------|--------------------|
|-------------------------|--------------------|
|--3--0--3--5--7----5--3--|--5-----------------|
|-------------------------|-----------3--------|
|-------------------------|--------------------|

|------------------------|------------------------|
|------------------------|------------------------|
|------------------------|------------------------|
|--3--0--3--7--5----3----|------------------------|
|------------------------|--3---------------------|
|------------------------|------------------------|

|-------------------------|--------------------|
|-------------------------|--------------------|
|-------------------------|--------------------|
|--3--0--3--5--7----5--3--|--5-----------------|
|-------------------------|-----------3--------|
|-------------------------|--------------------|

|------------------------|-------------------|
|------------------------|-------------------|
|------------------------|-------------------|
|--7--5--7--8--7----5----|-------------------|
|------------------------|--3--5--3----------|
|------------------------|-------------------|

(This next bit is played under the solo type riff above, its also the main verse riff.)

|--------------------------|------------------------------|
|--------------------------|------------------------------|
|--------------------------|------------------------------|
|--7--7--7--7--7--7--7--9--|--10--10--10---5--5--5--5--5--|
|--5--5--5--5--5--5--5--7--|---8---8---8---3--3--3--3--3--|
|--------------------------|------------------------------|

|--------------------------|-----------------------------|
|--------------------------|-----------------------------|
|--------------------------|-----------------------------|
|--7--7--7--7--3--3--3--3--|--5--5--5--5--5--5--5--5--5--|
|--5--5--5--5--1--1--1--1--|--3--3--3--3--3--3--3--3--3--|
|--------------------------|-----------------------------|

VERSE:
[00.42 - 1.10]

|--------------------------|------------------------------|
|--------------------------|------------------------------|
|--------------------------|------------------------------|
|--7--7--7--7--7--7--7--9--|--10--10--10---5--5--5--5--5--|
|--5--5--5--5--5--5--5--7--|---8---8---8---3--3--3--3--3--|
|--------------------------|------------------------------|

|--------------------------|-----------------------------|
|--------------------------|-----------------------------|
|--------------------------|-----------------------------|
|--7--7--7--7--3--3--3--3--|--5--5--5--5--5--5--5--5--5--|
|--5--5--5--5--1--1--1--1--|--3--3--3--3--3--3--3--3--3--|
|--------------------------|-----------------------------|

PRE-CHORUS:
[1.10 - 01.25]

|--------------------------|--------------------------|
|--------------------------|--------------------------|
|--------------------------|--------------------------|
|--3--3--3--3--3--3--3--3--|--5--5--5--5-----------5--|
|--1--1--1--1--1--1--1--1--|--3--3--3--3--0--0--0--3--|
|--------------------------|--------------0--0--0-----|
                                          .  .

CHORUS:
[01.25 - 1.40]

|--------------------------|------------------------------|
|--------------------------|------------------------------|
|--------------------------|------------------------------|
|--7--7--7-----------------|--7--7--7---------------------|
|--5--5--5--0--0--0--0--0--|--5--5--5--0--0--0--0--0------|
|-----------0--0--0--0--0--|-----------0--0--0--0--0------|
            .  .  .  .  .              .  .  .  .  .

|----------------------------|------------------------------|
|----------------------------|------------------------------|
|--------------12--10--9--7--|------------------------------|
|--3-----5-----12--10--9--7--|------------------------------|
|--1--3--3-------------------|------------------------------|
|-----1----------------------|------------------------------|

|--------------------------|------------------------------|
|--------------------------|------------------------------|
|--------------------------|------------------------------|
|--7--7--7-----------------|--7--7--7---------------------|
|--5--5--5--0--0--0--0--0--|--5--5--5--0--0--0--0--0------|
|-----------0--0--0--0--0--|-----------0--0--0--0--0------|
            .  .  .  .  .              .  .  .  .  .

|----------------|
|----------------|
|----------------|
|--3-----5~------|
|--1--3--3~------|
|-----1----------|

[1.40 - 1.55]

Play the bit after the intro again..

I think you get me know. Thats pretty much the main song, i dont know whats played under 
guitar during PRE-CHORUS part.
But anyway, thats the song.

If someone can do the solo it would be much appreciated im sure.
More HCSS tabs would be nice aswell :)
Suggest correction
Creating personal tab
Creating personal tab
You can edit any tab online and save it as your Personal.

You can edit, replace or remove any tab part or add personal notes – all changes will be seen only by you.

Personal tabs can be accessed anytime from any device, even offline.
Learn more »
Give kudos to tab author, rate the tab!
1 2 3 4 5
comments
print report bad tab
2 comments total.
0 reply
Kenjiii 143 May 24, 2008 02:00 AM

a few mistakes I'd like to correct
1) the song's in drop D
2) the fill in th chorus should be like this
|----------------------------|------------------------------|
|----------------------------|------------------------------|
|--------------10--9--7--5---|------------------------------|
|--3-----5-----10--9--7--5---|------------------------------|
|--1--3--3-------------------|------------------------------|
|-----1----------------------|------------------------------|

0 reply
jonteask 10 Aug 22, 2008 07:55 AM

I should play this
|----------------------------|------------------------------|
|----------------------------|------------------------------|
|--------------10--9--7--5---|------------------------------|
|--3-----5-----10--9--7--5---|------------------------------|
|--1--3--3-------------------|------------------------------|
|-----1----------------------|------------------------------|

Like
|----------------------------|------------------------------|
|----------------------------|------------------------------|
|--------------10--9--7--5---|------------------------------|
|--3-----5-----10--9--7--5---|------------------------------|
|--1--3--3-------------------|------------------------------|
|-----3----------------------|------------------------------|

guest
Wanna post a correction for this tab? Suggest correction