Oops, an error
Loading. Please wait.

Sorry For The Shape Im In tab

1,249 views 1 this week
1 commentread comment
1 2 3 4 5
2 more votes to show rating
add to favorites
×
Save as Personal and add changes to this tab that will be seen only by you. Learn more ›
×
You can save this tab as Personal to edit and correct it or add notes. All changes will be seen only by you. Learn more »
launch autoscroll
font size
0
reset
how to read this tab
guitar tuner
edit
Autoscroll
slow
fast
+/-
esc
set tempo
stop
Author
HARDCORE SUPERSTAR
Sorry For the Shape I'm in In
Transcribed By babylonbomb/Rino-High Voltage

Intro (repeat 11 times)
--------------------|
--------------------|
--------------------|
-2-2--4\3/4\3-----2-|
-2-2--2\1/3\1-0---2-|
-0-0------------3-0-|
                                                                              
 
End Intro
-------------|
-------------|
--4--5-------|
--4--5-------|
--2--3-------|
-------3\2-0-|

Verse (repeat 8 times)
------------------| 
------------------|
---7-9--9---------|
---7-9--9--8-7-5--|
-----------8-7-5--|
-0----------------|
                                                                              
Pre-Chorus (3 times)		End Pre-chorus
---------------|		--------------------------------|
---------------|		--------------------------------|
-2--4--5--9--7-|		-2--4--5--9---------------------|
-2--4--5--9--7-|		-2--4--5--9------4\3/4\3-----2--|
-0--2--3--7--5-|		-0--2--3--7------2\1/2\1-0---2--|
---------------|		-------------0-0-----------3-0--|
                                                                              
Chorus (repeat 3 times) End Chorus (repeat 2 times)
-----------|		------------|
-----------|		------------|
-----5--7--|		-5-5---9-7--|
--2--5--7--|		-5-5---9-7--|
--2--3--5--|		-3-3--------|
--0--------|		------------|

Intro (8 times)
End Intro
Verse (8 times)
Pre-Chorus (3 times)
End Pre-Chorus
Chorus (3 times)
End Chorus (2 times)

Solo
(i don’t figure out it)

Rhythm for Solo:
Intro (4 times)
Pre-Chorus (4 times)

Conclusion
--------------------------|
--------------------------|
-2--4--5--9---------------|
-2--4--5--9----4-3-----2--|
-0--2--3--7----2-1-----2--|
-------------------3-2-0--|

(end solo)

Chorus (3 times)
End Chorus (1 time) 
Chorus (3 times)
End Chorus (2 times)                                                                
Intro (8 times)
End Intro (Conclusion of the song) 

check out the song for timing

            
            
Suggest correction
Creating personal tab
Creating personal tab
You can edit any tab online and save it as your Personal.

You can edit, replace or remove any tab part or add personal notes – all changes will be seen only by you.

Personal tabs can be accessed anytime from any device, even offline.
Learn more »
Give kudos to tab author, rate the tab!
1 2 3 4 5
comments
print report bad tab
1 comment total.
0 reply
babylonbomb 78 Feb 05, 2008 11:17 AM

Sorry, the Intro is:

--------------------|
--------------------|
--------------------|
-2-2--4\3/4\3-----2-|
-2-2--2\1/2\1-0---2-|
-0-0------------3-0-|


Not:
--------------------|
--------------------|
--------------------|
-2-2--4\3/4\3-----2-|
-2-2--2\1/3\1-0---2-|
-0-0------------3-0-|

guest
You may want to rate the tab now too:
select rating
Wanna post a correction for this tab? Suggest correction