Oops, an error
Loading. Please wait.

31-91 Tab

version 1
version 1

Whole song

Interactive

1,813 views 1 this week
no commentswrite comment
1 2 3 4 5
please rate
add to favorites
launch autoscroll
font size
0
reset
how to read this tab
guitar tuner
Tab Pro tools
  • play this tab
  • loop segment
  • change instrument
  • show fretboard
  • metronome
×
Best way to learn
"31-91"
Autoscroll
slow
fast
+/-
esc
set tempo
stop
Difficulty
intermediate
Song :31-91 (instrumental )
Artist :hardline 
Album: Double eclipse 
Tab by: Djemai Sersoub: virusesattacks@hotmail.com 
tuning :standard 
Scale :Am       
any corrections or suggestion are welcome .
                                                                      
E||-------------0----------|---------------------|-------------0----------|
B||--1----1--1-----1----0--|--1----0-------------|--1----1--1-----1----3--|
G||-------2----------------|------------2--------|-------2----------------|
D||------------------------|---------------------|------------------------|
A||------------------------|---------------------|------------------------|
E||------------------------|---------------------|------------------------|


                                                                      
--0----0----1--0------|-------------0----------|---------------------|
----------------------|--1----1--1-----1----0--|--1----0-------------|
----------------------|-------2----------------|------------2--------|
----------------------|------------------------|---------------------|
----------------------|------------------------|---------------------|
----------------------|------------------------|---------------------|


                                                                       
--3--3--1----0---------|-------------0----------|---------------------|
--1--1------------3----|--1----1--1-----1----0--|--1----0-------------|
-----------------------|-------2----------------|------------2--------|
-----------------------|------------------------|---------------------|
-----------------------|------------------------|---------------------|
-----------------------|------------------------|---------------------|


                                                                         
-------------0----------|--0----0----1--0------|-------------0----------|
--1----1--1-----1----3--|----------------------|--1----1--1-----1----0--|
-------2----------------|----------------------|-------2----------------|
------------------------|----------------------|------------------------|
------------------------|----------------------|------------------------|
------------------------|----------------------|------------------------|


                                                                     
---------------------|--3--3--1----0---------|-------0----1----0----|
--1----0-------------|--1--1------------3----|--3-------------------|
------------2--------|-----------------------|----------------------|
---------------------|-----------------------|----------------------|
---------------------|-----------------------|----------------------|
---------------------|-----------------------|----------------------|


                                                                     
-------0--------------|-------0----1----0----|----------------------|
--3---------1---------|--3-------------------|--3----3----3---------|
-----------------2----|----------------------|---------------2------|
----------------------|----------------------|----------------------|
----------------------|----------------------|----------------------|
----------------------|----------------------|----------------------|


                                                                       
-------0----1----3h---|--5----5----5--5--5--5--|--3--3----------------|
--3-------------------|------------0--0--------|----------5p-3--------|
----------------------|------------------------|----------------------|
----------------------|------------------------|----------------------|
----------------------|------------------------|----------------------|
----------------------|------------------------|----------------------|


                                                                        
-------------0----------|---------------------|-------------0----------|
--1----1--1-----1----0--|--1----0-------------|--1----1--1-----1----3--|
-------2----------------|------------2--------|-------2----------------|
------------------------|---------------------|------------------------|
------------------------|---------------------|------------------------|
------------------------|---------------------|------------------------|


                                                                      
--0----0----1--0------|-------------0----------|---------------------|
----------------------|--1----1--1-----1----0--|--1----0-------------|
----------------------|-------2----------------|------------2--------|
----------------------|------------------------|---------------------|
----------------------|------------------------|---------------------|
----------------------|------------------------|---------------------|


                                                                      
--3--3--1----0---------|-------0----1----3----|--8----3----8---------|
--1--1------------3----|--3-------------------|-----------------8----|
-----------------------|----------------------|----------------------|
-----------------------|----------------------|----------------------|
-----------------------|----------------------|----------------------|
-----------------------|----------------------|----------------------|


                                                                     
--5----8----5----7----|--8--8----5------------|---------------------|
----------------------|--5--5---------5----8--|----5----8-----------|
----------------------|-----------------------|--------------7------|
----------------------|-----------------------|---------------------|
----------------------|-----------------------|---------------------|
----------------------|-----------------------|---------------------|


                                                                      
--8--8----5------------|---------------------|--8--8----7------------|
--5--5---------5----8--|----5----8-----------|--5--5---------8----5--|
-----------------------|--------------7------|-----------------------|
-----------------------|---------------------|-----------------------|
-----------------------|---------------------|-----------------------|
-----------------------|---------------------|-----------------------|


                                                               
--------------------|--3--3----1----0----0--|------0----|----||
----8---------------|--1--1----0----0----3--|------3----|----||
---------7----------|--------------------2--|------2----|----||
--------------------|-----------------------|-----------|----||
--------------------|-----------------------|-----------|----||
--------------------|-----------------------|-----------|----||
Nb :timing isn't correct .
comments
We did not receive enough feedback on this tab! Please rate:
print report bad tab
1 2 3 4 5
I want to post or [tab]
guest
You may want to rate the tab now too:
select rating
Please do not post tabs as comments. Select "correction" instead!