Oops, an error
Loading. Please wait.

Apollo chords

11,816 views 24 this week
1 commentread comment
1 2 3 4 5
x 9
add to favorites
×
Save as Personal and add changes to this tab that will be seen only by you. Learn more ›
×
You can save this tab as Personal to edit and correct it or add notes. All changes will be seen only by you. Learn more »
launch autoscroll
font size
0
reset
transpose
0
reset
simplify chords
display chords
guitar tuner
edit
Autoscroll
slow
fast
+/-
esc
set tempo
stop
Strumming
There is no strumming pattern for this song yet. and get +5 IQ
Artist: hardwell
Song: Apollo
E-mail: sherm.dj@gmail.com
Tuning: standard
Capo 2nd fret

[Chords]
       Em      Cmaj7     G6      Asus
d|-----0---------0-------0-------0-----|
B|-----0---------0-------0-------3-----|
G|-----0---------0-------0-------2-----|
D|-----2---------2-------0-------0-----|
A|-----2---------3-------2-------0-----|
E|-----0---------X-------3-------X-----|

[Intro/Prechorus]
Em                  Cmaj7
Just one day in the life 
     G6       Asus
So I can understand 
Em                  Cmaj7
Fighting just to survive 
           G6       Asus
But you taught me I can 
Em               Cmaj7
We are the lucky ones 
   G6      Asus
We are, we are 
   Em               Cmaj7
Oh we are the lucky ones

[Chorus]
d|------------------------------------------------------------------|
B|-----7-8-----7-8----7-8-10-8-7-8----7-8---------------8-7---------|
G|--7--------7------7---------------7--------7-9--7-7-9-------------|
D|-----------------------------------------9------------------------|
A|------------------------------------------------------------------|
E|------------------------------------------------------------------|

************************************

| X - muting

************************************

            
            
Suggest correction
Creating personal tab
Creating personal tab
You can edit any tab online and save it as your Personal.

You can edit, replace or remove any tab part or add personal notes – all changes will be seen only by you.

Personal tabs can be accessed anytime from any device, even offline.
Learn more »
comments
print report bad tab
1 comment total.
0 reply
r-lang1 10 Nov 15, 2015 11:55 PM

*Chorus:

(The Key of the song is A Maj)
d|------------------------------------------------------------------|
B|------------------------0-----------------------------------------|
G|-----1-2-----1-2----1-2----2-1-2----1-2-------------------2-1-----|
D|--2--------2------2---------------2-----0--2--4--2-2-4------------|
A|------------------------------------------------------------------|
E|------------------------------------------------------------------|

guest
You may want to rate the tab now too:
select rating
Wanna post a correction for this tab? Suggest correction