Oops, an error
Loading. Please wait.

Apollo tab

version 1
version 1

Whole song

3,939 views 3 this week
3 commentsread comments
1 2 3 4 5
x 5
add to favorites
×
Save as Personal and add changes to this tab that will be seen only by you. Learn more ›
×
You can save this tab as Personal to edit and correct it or add notes. All changes will be seen only by you. Learn more »
launch autoscroll
font size
0
reset
how to read this tab
guitar tuner
edit
Autoscroll
slow
fast
+/-
esc
set tempo
stop
Author
Difficulty
-------------------------------------------------------------------------------
                             Apollo - Hardwell
-------------------------------------------------------------------------------
Tabbed by:JGloz

Tuning:Standard

Main riff

e|---------------------------------------------------------------------------|
B|---------------------------------------------------------------------------|
G|----13-14---13-14---13-14-16-14-13-14--13-14-----11-----11-14-13-----------|
D|--14------14------14-----------------14-----11-14--14-14-------------------|
A|---------------------------------------------------------------------------|
E|---------------------------------------------------------------------------|

            
            
Suggest correction
Creating personal tab
Creating personal tab
You can edit any tab online and save it as your Personal.

You can edit, replace or remove any tab part or add personal notes – all changes will be seen only by you.

Personal tabs can be accessed anytime from any device, even offline.
Learn more »
comments
print report bad tab
3 comments total.
0 reply
DyonEnde 31 Dec 14, 2013 08:57 AM

the chords are: Bm, D, A, E

0 reply
jgloz 473 Dec 16, 2013 03:44 AM

Nice one mate, will add them :)

0 reply
r-lang1 10 Dec 01, 2015 11:57 PM

*Chorus:

d|------------------------------------------------------------------|
B|------------------------0-----------------------------------------|
G|-----1-2-----1-2----1-2----2-1-2----1-2-------------------2-1-----|
D|--2--------2------2---------------2-----0--2--4--2-2-4------------|
A|------------------------------------------------------------------|
E|------------------------------------------------------------------|

guest
You may want to rate the tab now too:
select rating
Wanna post a correction for this tab? Suggest correction