Oops, an error
Loading. Please wait.

Dare You bass

82 views 1 this week
no commentswrite comment
1 2 3 4 5
3 more votes to show rating
add to favorites
×
Save as Personal and add changes to this tab that will be seen only by you. Learn more ›
×
You can save this tab as Personal to edit and correct it or add notes. All changes will be seen only by you. Learn more »
launch autoscroll
font size
0
reset
guitar tuner
edit
Autoscroll
slow
fast
+/-
esc
set tempo
stop
Author
This is my second bass tab on this site and there are no bass tabs for this song on this site, 
so please rate and enjoy :)
This is the way I play this song.
Don't stop the flow of the bass when in the instrumental unless you hear the song doing that.
Link to video : https://www.youtube.com/watch?v=q0xurGh5TXk


Standard tuning : E A D G

Verse : 
G | -------------------------------|-------------------------------|
D | -------------------------------|-------------------------------|
A | -------------------------------|-------------------------------|
E | 0-0-0-0-0-0-0-0-0-0-0-0-0-0-0-0|5-5-5-5-5-5-5-5-5-5-5-5-5-5-5-5|

G | -------------------------------|-------------------------------|
D | -------------------------------|-------------------------------|
A | -------------------------------|-------------------------------|
E | 9-9-9-9-9-9-9-9-9-9-9-9-9-9-9-9|5-5-5-5-5-5-5-5-5-5-5-5-5-5-5-5|

Chorus : 
G | -------------------------------|-------------------------------|
D | -------------------------------|-------------------------------|
A | -------------------------------|-------------------------------|
E | 0-0-0-0-0-0-0-0-0-0-0-0-0-0-0-0|5-5-5-5-5-5-5-5-5-5-5-5-5-5-5-5|


G | -------------------------------|-------------------------------|
D | -------------------------------|-------------------------------|
A | -------------------------------|-------------------------------|
E | 9-9-9-9-9-9-9-9-9-9-9-9-9-9-9-9|7-7-7-7-7-7-7-7-5-5-5-5-5-5-5-5|

Instrumental : 
G | ---------------------|---------------------|---------------------|---------------------|
D | ---------------------|---------------------|---------------------|---------------------|
A | ---------------------|---------------------|---------------------|---------------------|
E | 0-0-0-0-0-0-0-0-0-0-0|5-5-5-5-5-5-5-5-5-5-5|9-9-9-9-9-9-9-9-9-9-9|7-7-7-7-7-7-5-5-5-5-5|

            
            
Suggest correction
Creating personal tab
Creating personal tab
You can edit any tab online and save it as your Personal.

You can edit, replace or remove any tab part or add personal notes – all changes will be seen only by you.

Personal tabs can be accessed anytime from any device, even offline.
Learn more »
Give kudos to tab author, rate the tab!
1 2 3 4 5
comments
print report bad tab
guest
You may want to rate the tab now too:
select rating
Wanna post a correction for this tab? Suggest correction