Oops, an error
Loading. Please wait.

Spaceman Tab

version 1
version 1

Whole song

Interactive

8,969 views 15 this week
1 commentread comment
1 2 3 4 5
x 3
add to favorites
launch autoscroll
font size
0
reset
how to read this tab
guitar tuner
Autoscroll
slow
fast
+/-
esc
set tempo
stop
Author
Difficulty
novice
Tuning: Standard

(Two parts to the song and there are variations of this every now and then.)

e|---------------------------------------------------------------------------|
B|---------------------------------------------------------------------------|
G|---------------------------------------------------------------------------|
D|-1-1-1-1-1h3p1-1s8-9-8-9---1-1-1-1-1s8-8-7-5-4-4-4-4-----------------------|
A|---------------------------------------------------------------------------|
E|---------------------------------------------------------------------------|

e|---------------------------------------------------------------------------|
B|---------------------------------------------------------------------------|
G|----8-8-8-8--8h10p8--8s14-15-14-15---8-8-8-8-8s14-14-13-11-10-10-10-10-----|
D|---------------------------------------------------------------------------|
A|---------------------------------------------------------------------------|
E|---------------------------------------------------------------------------|


************************************

| h  Hammer-on
| p  Pull-off

************************************
Suggest correction
Give kudos to tab author, rate the tab!
1 2 3 4 5
comments
print report bad tab
1 comment total.
0 reply
DyonEnde 31 Dec 14, 2013 08:56 AM

e|-----------------------------|--------------------------------------------|
B|-----------------------------|--------------------------------------------|
G|-----------------------------|--------------------------------------------|
D|---------------9-10-9--------|-----------------10-7-9--5-4-5--------------|
A|----7-7-7-7-7----------------|------7-7-7-7-7-----------------------------|
E|----0L-----------------------|------0L------------------------------------|

And the chords are: Em, C, D All barré

guest
You may want to rate the tab now too:
select rating
Wanna post a correction for this tab? Suggest correction