Oops, an error
Loading. Please wait.

Honestly Chords

version 1
version 1

Acoustic

Whole song

Interactive

595 views 84 this week
no commentswrite comment
1 2 3 4 5
3 more votes to show rating
add to favorites
launch autoscroll
font size
0
reset
transpose
0
reset
display chords
guitar tuner
Autoscroll
slow
fast
+/-
esc
set tempo
stop
Help us to improve Ultimate-Guitar.com Take our survey!
×
Author
Difficulty
intermediate
HONESTLY by Harem Scarem: Tabbed by Buenofine Calse


[Intro]

e|-----------|--------------------|-----------------------|
B|-----------|----------------0---|-----------------------|
G|-----------|--------------1---1-|-----------------------|
D|-----------|-------4----4-------|-----------------------|
A|-----------|----2-----2---------|-----------2---4/6--4--|
E|----7\-----|-0------------------|----0—2/4--------------|

             
e|-------------7--|--------------------|-----------0------|
B|-5---5\4-----5--|-------9--7--5--7---|-----------0------|
G|-4---4----------|--------------------|------------------|
D|----------------|--7/9--9--7--5--7---|-------2----------|
A|-4--------4-----|--------------------|---0--------------|
E|----------------|--------------------|------------------|
    
 
e|------0------|------7----5----4----2--------------------|
B|--------4----|------9-9--7-7--5-5--4-4------------------|
G|–2/4-------4-|------9----8----6----4--------4-----------|
D|-------------|--------------------------4/6----5h6------|
A|-------------|---------------------------------------7--|
E|-------------|---0--------------------------------------|


[Verse 1]

C                 Am
I stand before you, accused of many crimes
F                                           C  
But I want to believe, that love can still survive
C                         Am
You don’t have to say it, I don’t have to read your mind
F                                  C
To know the emptiness has finally arrived
Am     G     F                C
How was I to know right from wrong?
Am                  G       F
Words were hardly spoken, so where did I go wrong?


[Chorus]
                  C        
        Tell me honestly
                     Am
        If you still love me
                   F               C
        Looking into my eyes, honestly


[Verse 2]

C                                   Am
Words have more meaning, if they’re said at certain times
F                                     C
The love they’ve seen I found to be a lie
C                          Am
How would you know it? You won’t give me sometime
             F                                  C
To see if everything could work out, you’d be mine
             Am                   G        F               C
Oh woah oh, will love be lost forever but someday I will find
         Am                G
The world that I've been searching for
      F
Or just some piece of mine


[Chorus] (x2)

                  C        
        Tell me honestly
                     Am
        If you still love me
                   F               C
        Looking into my eyes, honestly

Yeah...yeah...yeah


[Solo]

Am - G - F - C   Am - G - F


[Bridge]

C                A#
All the nights I sit and wonder
Am              G#
Must be more to love I’m sure that
C                A#
Days and years gone by while I am
Am              G#
Living with the lonely feeling

C                     Am
Honestly If you still love me
         F                 C
Looking into my eyes honestly


[Chorus]
                      C      
        Oh! Tell me honestly
                     Am
        If you still love me
                   F                C
        Looking into my eyes, honestly.


************************************

| h  Hammer-on
| /  Slide up
| \  Slide down

************************************
Suggest correction
Give kudos to tab author, rate the tab!
1 2 3 4 5
comments
print report bad tab
guest
You may want to rate the tab now too:
select rating
Wanna post a correction for this tab? Suggest correction