Oops, an error
Loading. Please wait.

Honestly Acoustic Tab

7,344 views 15 this week
no commentswrite comment
1 2 3 4 5
3 more votes to show rating
add to favorites
launch autoscroll
font size
0
reset
how to read this tab
guitar tuner
Autoscroll
slow
fast
+/-
esc
set tempo
stop
Help us to improve Ultimate-Guitar.com Take our survey!
×
Author
Honestly Guitar Solo 
Harem Scarem
Tabbed by: monstoy guitar

This tab has a video tutorial in my YouTube channel: https://www.youtube.com/channel/UC8UpBLYq8T0mkscMhkMyuAg


         arpeggio                    arpeggio
E|---------12-----------11-----12-------11----------12-----11------||
B|--------12------12-------------------12-----12-------------------||
G|-------13-------------11-----13-----13------------13-----11------||
D|-----------------------------------------------------------------||
A|-----------------------------------------------------------------||
E|-----------------------------------------------------------------||
        
E|---------------9---7---5-------------------------------------||
B|---------------------------9---5---7---7/9---10---9----------||
G|---------8/9---9---8---6-------------------------------------||
D|---------------------------9---6---7---7/9---11---9----------||
A|-------------------------------------------------------------||
E|-------------------------------------------------------------||

E|----------------7-----5--------------------------------------------||
B|--------7/9-----9-----7-----9-----7-----9-----7----5----5/7----4---||
G|----------------------------9-----8-----9-----8----6----6/8----4---||
D|-------------------------------------------------------------------||
A|-------------------------------------------------------------------||
E|-------------------------------------------------------------------||

E|--------2p0-------4p0-------5p0-------4p0--------2h4p2p0---------||
B|-------------0---------0---------0---------0--------------0------||
G|-----------------------------------------------------------------||
D|-----------------------------------------------------------------||
A|-----------------------------------------------------------------||
E|-----------------------------------------------------------------||

E|---------4---------5---------7----------9-----------11-----------12------||
B|----4/5-------5/7-------7/9-------9/10-------10/12--------12/14----------||
G|-------------------------------------------------------------------------||
D|-------------------------------------------------------------------------||
A|-------------------------------------------------------------------------||
E|-------------------------------------------------------------------------||
Suggest correction
Give kudos to tab author, rate the tab!
1 2 3 4 5
comments
print report bad tab
guest
You may want to rate the tab now too:
select rating
Wanna post a correction for this tab? Suggest correction