Oops, an error
Loading. Please wait.

Honestly Tab

version 4
version 4

Acoustic

Whole song

Interactive

15,615 views 39 this week
1 commentread comment
1 2 3 4 5
3 more votes to show rating
add to favorites
launch autoscroll
font size
0
reset
how to read this tab
guitar tuner
Autoscroll
slow
fast
+/-
esc
set tempo
stop
Help us to improve Ultimate-Guitar.com Take our survey!
×
Author
Difficulty
Tuning
advanced
D# G# C# F# A# D#
Honestly (acoustic version)
By Harem Scarem




It is hard to find a reliable and accurate tab frm this song through web site so 
Ive decided to listen and play this by myself and I think this is far better than 
what others have made  so I  write this tab just for you guys and believe me its a 
100% accurate..

		All done in chords
intro
e|----------|-------------------7-|------------------0-|----0---|--7--|--5--|
B|-------0--|---------------5p4-4-|-----9-7-5-7------0-|-----4--|--9--|--7--|
G|------1-1-|---------------4---4-|--------------------|-2/4--4-|---9-|---8-|
D|---4-4----|--------------6---6--|-6/9-9-7-6-7-7\2-2--|--------|-----|-----|
A|--2-2-----|------2-4/6-4~-------|-------------0------|--------|-----|-----|
E|-0--------|-0-2/4---------------|--------------------|--------|-0---|-0---|

e|--4--|--2--|-------------|
B|--5--|--4--|-----5-------|
G|---6-|---4-|-2/4-4-4\2-1-|
D|-----|-----|-4/6---------|
A|-----|-----|-------------|
E|-0---|-0---|-------------|


I stand before you accused of many crimes, but I want to believe that love can still survive
e|---0----|---------------------|---------------0----|-----------------0----|
B|----0---|---------------5p4-4-|-------0--------0---|---------0--------0---|
G|-----1--|---------------4---4-|-----------------2--|-------------------1--|
D|--2---2-|--------------6---6--|--6-4/6-6\4-2-2---2-|----2-4/6-6\4-2-2---2-|
A|--------|------2-4/6-4~-------|-4-----------0------|-0-4------------------|
E|-0------|-0-2/4---------------|--------------------|---------------0------|

e|-------------|
B|-------------|
G|-2-2-2-2p1-1-|
D|-2-2-2-2--2--|
A|-------------|
E|-------------|


You don’t have to say it, I don’t have to read your mind to know that emptiness has finally arrived
e|---0----|---------------------|---------------0----|-----------------0---|
B|----0---|---------------5p4-4-|-------0--------0---|---------0--------0--|
G|-----1--|---------------4---4-|-----------------2--|-------------------1-|
D|--2---2-|--------------6---6--|--6-4/6-6\4-2-2---2-|----2-4/6-6\4-2-2----|
A|--------|------2-4/6-4~-------|-4-----------0------|-0-4-----------------|
E|-0------|-0-2/4---------------|--------------------|---------------0-----|


How was I to know right from wrong
e|----------|-----4----|-----2----|-----0----------|-------|
B|--9---7---|------5-5-|------2-2-|------0----4-5~-|---7---|
G|---9---8--|---4---4--|---4---4--|---2------------|----8--|
D|----9---9-|--6-6-----|--4-4-----|--2-2--2/4-4-6~-|-----9-|
A|-7---6----|-4--------|-2--------|-0--------------|--6----|
E|----------|----------|----------|----------------|-0-----|


Words were hardly spoken so where did I go wrong
e|-----4-----|-----2----|-----0----|-----0----|
B|------5-5--|------2-2-|------0---|------0---|
G|---4---4---|---4---4--|---2---2--|-------2--|
D|--6-6------|--4-4-----|--2-2---2-|--2-----2-|
A|-4---------|-2--------|-0--------|-0-0------|
E|-----------|----------|----------|----0-----|


Tell me honestly if you're still loving me Looking into my eyes honestly
e|-----0----|-------------------7-|---------------0----|----------------|---------|
B|------0---|---------------5p4-4-|-------0--------0---|---------0------|---------|
G|---1---1--|---------------4---4-|-----------------2--|----------------|---2p1---|
D|--2-2---2-|--------------6---6--|--6-4/6-6\4-2-2---2-|----2-4/6-6\4-2-|------2--|
A|----------|------2-4/6-4~-------|-4-----------0------|-0-4------------|--2----2-|
E|-0--------|-0-2/4---------------|--------------------|----------------|-0-------|

Words have more meaning, if they're said at certain times I need you now so I can feel alive
e|---0----|---------------------|---------------0----|----------------|
B|----0---|---------------5p4-4-|-------0--------0---|---------0------|
G|-----1--|---------------4---4-|-----------------2--|----------------|
D|--2---2-|--------------6---6--|--6-4/6-6\4-2-2---2-|----2-4/6-6\4-2-|
A|--------|------2-4/6-4~-------|-4-----------0------|-0-4------------|
E|-0------|-0-2/4---------------|--------------------|----------------|

e|--7--|--5--|--4--|--2--|-------------|
B|--9--|--7--|--5--|--4--|-----5-------|
G|---9-|---8-|---6-|---4-|-2/4-4-4\2-1-|
D|-----|-----|-----|-----|-4/6---------|
A|-----|-----|-----|-----|-------------|
E|-0---|-0---|-0---|-0---|-------------|


How would you know if you won't give me some time To see if everything could work out youll be mine
e|---0----|---------------------|---------------0----|-----------------0---|
B|----0---|---------------5p4-4-|-------0--------0---|---------0--------0--|
G|-----1--|---------------4---4-|-----------------2--|-------------------1-|
D|--2---2-|--------------6---6--|--6-4/6-6\4-2-2---2-|----2-4/6-6\4-2-2----|
A|--------|------2-4/6-4~-------|-4-----------0------|-0-4-----------------|
E|-0------|-0-2/4---------------|--------------------|---------------0-----|


	Ill be lost forever or someday I may find
e|----------|-----4----|-----2----|-----0----------|-------|
B|--9---7---|------5-5-|------2-2-|------0----4-5~-|---7---|
G|---9---8--|---4---4--|---4---4--|---2------------|----8--|
D|----9---9-|--6-6-----|--4-4-----|--2-2--2/4-4-6~-|-----9-|
A|-7---6----|-4--------|-2--------|-0--------------|--6----|
E|----------|----------|----------|----------------|-0-----|


The words that Ive been searching for or just some peace of mind
e|-----4-----|-----2----|-----0----|---0--0---|
B|------5-5--|------2-2-|------0---|--4--2-0--|
G|---4---4---|---4---4--|---2---2--|-2--4---2-|
D|--6-6------|--4-4-----|--2-2---2-|----------|
A|-4---------|-2--------|-0--------|----------|
E|-----------|----------|----------|----------|


Tell me honestly if youre still loving me. Looking into my eyes honestly
e|-----0----|-------------------7-|---------------0----|----------------|
B|------0---|---------------5p4-4-|-------0--------0---|---------0------|
G|---1---1--|---------------4---4-|-----------------2--|----------------|
D|--2-2---2-|--------------6---6--|--6-4/6-6\4-2-2---2-|----2-4/6-6\4-2-|
A|----------|------2-4/6-4~-------|-4-----------0------|-0-4------------|
E|-0--------|-0-2/4---------------|--------------------|----------------|


e|--7--|--5--|--4--|--2--|-------------|
B|--9--|--7--|--5--|--4--|-----5-------|
G|---9-|---8-|---6-|---4-|-2/4-4-4\2-1-|
D|-----|-----|-----|-----|-4/6---------|
A|-----|-----|-----|-----|-------------|
E|-0---|-0---|-0---|-0---|-------------|




Tell me honestly, if you're still loving me Looking into my eyes honestly
e|---0----|-------------------7-|---------------0----|-----------------0---|
B|----0---|---------------5p4-4-|-------0--------0---|---------0--------0--|
G|-----1--|---------------4---4-|-----------------2--|-------------------1-|
D|--2---2-|--------------6---6--|--6-4/6-6\4-2-2---2-|----2-4/6-6\4-2-2----|
A|--------|------2-4/6-4~-------|-4-----------0------|-0-4-----------------|
E|-0------|-0-2/4---------------|--------------------|---------------0-----|


e|----------|
B|--9---7---|
G|---9---8--|
D|----9---9-|  instrumental
A|-7---6----|
E|----------|


Instrumental solo

e|-12p11-11-12~-|-11--12-11~-|----------------------------|----------------------------|
B|-12-----------|---12-------|-----14-12-10-9-5-7-9/10-9~-|-----12-10-9-7-9-7-5-5/7-4~-|
G|-11----11-13~-|-11--13-11~-|----------------------------|-/13-13-11-9-8-9-8-6-6/8-4~-|
D|--------------|------------|-/14-14-13-11-9-6-7-9/11-9~-|----------------------------|
A|--------------|------------|----------------------------|----------------------------|
E|--------------|------------|----------------------------|----------------------------|

											the nights
e|-----------------------------------|----4---5---7----9-----11--12~~-|
B|-----------------------------------|-4h5-5h7-7h9-9h10-10h12--12--~~-|
G|---11p9-13p9-14p9-13p9-11h13p11p9--|--------------------------------|solo ends
D|-/9----9----9----9----9----------9-|--------------------------------|
A|-----------------------------------|--------------------------------|
E|-----------------------------------|--------------------------------|


I sit and wonder there must be more life Im sure that days and years go by while I 
am living with living with a lonely feeling
e|-----2----|-----0--|---------3--|---------0----|-----2----|-----0----|-3-|
B|---3--3-3-|------0-|-------3--3-|----------0---|---3--3-3-|------0---|-3-|
G|--2-2--2--|---2----|--------0---|-------1---1--|--2-2--2--|---2---2--|-0-|
D|-0--------|--2-2---|------2-----|------2-2---2-|-0--------|--2-2---2-|-2-|
A|----------|-0------|-0-2-3------|--------------|----------|-0--------|-3-|
E|----------|--------|------------|-3-2-0--------|----------|----------|---|

Honestly if youre still loving me Looking into my eyes honestly
e|-----0----|-------------------7-|---------------0----|----------------|
B|------0---|---------------5p4-4-|-------0--------0---|---------0------|
G|---1---1--|---------------4---4-|-----------------2--|----------------|
D|--2-2---2-|--------------6---6--|--6-4/6-6\4-2-2---2-|----2-4/6-6\4-2-|
A|----------|------2-4/6-4~-------|-4-----------0------|-0-4------------|
E|-0--------|-0-2/4---------------|--------------------|----------------|

e|--7--|--5--|--4--|--2--|-------------|
B|--9--|--7--|--5--|--4--|-----5-------|
G|---9-|---8-|---6-|---4-|-2/4-4-4\2-1-|
D|-----|-----|-----|-----|-4/6---------|
A|-----|-----|-----|-----|-------------|
E|-0---|-0---|-0---|-0---|-------------|

Honestly if youre still loving me Looking into my eyes honestly
e|---0----|-------------------7-|---------------0----|-----------------0---|-0-|
B|----0---|---------------5p4-4-|-------0--------0---|---------0--------0--|-0-|
G|-----1--|---------------4---4-|-----------------2--|-------------------1-|-1-|
D|--2---2-|--------------6---6--|--6-4/6-6\4-2-2---2-|----2-4/6-6\4-2-2----|-2-|
A|--------|------2-4/6-4~-------|-4-----------0------|-0-4-----------------|-2-|
E|-0------|-0-2/4---------------|--------------------|---------------0-----|-0-|



p = pull off
h = hammer
/ = slide forward
\ = slide backward
~ = vibrato

For comments and suggestions email me night3y3@yahoo.com or visit me on facebook.
Remember guys good tabs and a little practice makes you play like a pro. 
Suggest correction
Give kudos to tab author, rate the tab!
1 2 3 4 5
comments
print report bad tab
1 comment total.
0 reply
kloxz21_myt 10 Jul 22, 2015 11:53 AM

Wow!! nice and great

guest
You may want to rate the tab now too:
select rating
Wanna post a correction for this tab? Suggest correction