Oops, an error
Loading. Please wait.

Something To Say Tab

version 1
version 1

Solo

Interactive

12,697 views 3 this week
no commentswrite comment
1 2 3 4 5
please rate
add to favorites
launch autoscroll
font size
0
reset
how to read this tab
guitar tuner
Autoscroll
slow
fast
+/-
esc
set tempo
stop
Help us to improve Ultimate-Guitar.com Take our survey!
×
++++++++++++++++++++++++++++++++++++++++++++++++++++++
+ Artist: Harem Scarem                               +
+ Song: something to say                             +
+ Transcribed By: Paolo sorreda                      +
+ Date: 9/19/2004                                    +
+ Taga bicol man ini o                               +
++++++++++++++++++++++++++++++++++++++++++++++++++++++

This the solo 

 Guitar Solo
|-----------------------|---------2-----------2-|
|---------------0-------|-----------3-----------|
|---------2---------2---|-------4-------4-------|
|------2----------2-----|-----4-------4---------|
|-0-----------0---------|-2---------------------|
|-----------------------|-----------------------|
|             ~
|-7--7----7---5---7---7-|---5-------------(5)---|
|-8--8----8-8-7---8---8-|-8-7-------------(7)---|
|-----------------------|-----------------------|
|-----------------------|-----------------------|
|-----------------------|-----------------------|
|-----------------------|-----------------------|


|---------2----------|-----------------|
|-----------3--------|-------3---------|
|-------4-----4------|-----0-----------|
|-----4---------4----|---------0-------|
|-2------------------|------------2----|
|--------------------|--3--------------|
|                       ~~
|-5h7p5-2-3-5---7--9-|-10--------------|
|-7-----3-5-7---8-10-|-12--------------|
|--------------------|-----------------|
|--------------------|-----------------|
|--------------------|-----------------|
|--------------------|-----------------|


|-----------------------------------|
|---------------------0-------------|
|------------------2-----------2----|
|------------2----------------------|
|--0--------------------------------|
|-----------------------------------|
|
|--9h10S=12-10h12-14-12-14-15-14-12-|
|-10----/14-12----15-14-15-17-15-14-|
|-----------------------------------|
|-----------------------------------|
|-----------------------------------|
|-----------------------------------|


|---------------2--------|---------------------------------|
|-----------3--------3---|------------3--------------2-----|
|--------4-------------4-|---------------------------------|
|-----4------------4-----|--------4---------------2--------|
|--2---------------------|--2-----------------0------------|
|------------------------|---------------------------------|
|           ~~~~~~~
|-10-12-14-10-(10)-------|-10h12p10---9h10p9--5h7p5--------|
|-12-14-15-12-(12)-------|-12--------10-------7------------|
|------------------------|-------------------------------2-|
|------------------------|---------------------------2S5---|
|------------------------|---------------------------------|
|------------------------|---------------------------------|


|------------------|---------------0-------------|
|-------3-(3)------|--------------------0--------|
|-----0-------0----|-----------0------2----------|
|---0--------------|---------2-------------------|
|---------------2--|-0---------------------------|
|-3----------------|-----------------------------|
| ~
|------------------|-----------------------------|
|------------------|-2h3p2p0---------------------|
|-4----------------|---------2---0--------0--0---|
|------------------|------------------4--------2-|
|------------------|-----------------------------|
|------------------|-----------------------------|


|-----2--------0---|-----------------|
|---3--------2-----|-------3---------|
|-2------2---------|-----0-----------|
|-0------2---------|---0-----0-------|
|-0------0---------|-----------------|
|------------------|-3---------3-2---|
| ~                  ~
|------------------|-----------------|
|----------------2-|-3---------------|
|------------2-4---|-----------------|
|-4------4h5-------|-----------------|
|------------------|-----------------|
|------------------|-----------------|


|------------0-----|------------------|
|----------0-------|------0-------2h3-|
|-------0----------|---0----------2---|
|-----2--------2---|------------------|
|---2--------------|----------0-------|
|-0----------------|-3------3---------|
|
|------------------|------------------|
|---8p7---10-----8-|-7---10-----8p7---|
|-------9----------|---9------------9-|
|------------------|------------------|
|------------------|------------------|
|------------------|------------------|


|------------------|----------------------------||
|------------------|----------------------------||
|------------------|----------------------------||
|------------------|----------------------------||
|--0---------------|----------------------------||
|------------------|----------------------------||
|
|-10---10p9--------|-----------------------7--9-||
|------10---10-----|----------------7-8-10-9-10-||
|------------9-9-6-|-7--------6-7-9-7-9-11------||
|--------------9-7-|-7--0-(0)-7-9-6-------------||
|------------------|----------------------------||
|------------------|----------------------------||



++++++++++++++++++++++++++++++++++++++++++++++++++++++++++++
Ricky?
Suggest correction
Give kudos to tab author, rate the tab!
1 2 3 4 5
comments
print report bad tab
guest
You may want to rate the tab now too:
select rating
Please do not post tabs as comments. Select "correction" instead!