Oops, an error
Loading. Please wait.

Something To Say Tab

version 5
version 5

Interactive

3,891 views 1 this week
no commentswrite comment
1 2 3 4 5
please rate
add to favorites
launch autoscroll
font size
0
reset
how to read this tab
guitar tuner
Tab Pro tools
  • play this tab
  • loop segment
  • change instrument
  • show fretboard
  • metronome
×
Best way to learn
"Something To Say"
Autoscroll
slow
fast
+/-
esc
set tempo
stop
Contributor
Difficulty
intermediate

something to say 

Tab:by: lugaaw@yahoo.com " for meemaws "


h=hammering
s=slide 
/=back slide

INTRO 
E|--2-------5h2---------------------0---------------3-3s5--5/3--|  
B|--3-----3-----3---------------------0-------------3-3s5--5/3--|   
G|--2---2---------2----------4----------4-----------------------|  
D|--0---------------------------2-------------------------------|   
A|--------------------2s4---------------------------------------|
E|------------------------------------------2--3----------------|

E|--2-------5h2---------------------0-----------------------|
B|--3----3------3---------------------0-------------2-------|
G|--2--2----------2----------4----------4-----------2-------|
D|--0---------------------------2-------------------2-------|  
A|--------------------2s4----------------------3----0-------|   
E|------------------------------------------2---------------|


E|---------9h8----------------------------------------------|
B|-------9-----9--------------------------------------------|   
G|--4s8----------8/5--5h6-----------------------------------|  
D|----------------------------------------------------------|  
A|----------------------------------------------------------|   
E|----------------------------------------------------------|

verse 1 

(up stroke)
E|----2-------------------2---------------------------------| 
B|----3-------------------2---------------------------------|   
G|----2-------------------2------------------------- -------| 
D|-0------------------0-------------------------------------|  
A|----------------------------------------------------------|   
E|----------------------------------------------------------|
yesterday i've had it all 

E|---7---7----------10---12h10------------------------------|  
B|---8---8----------11----------11--------------------------|  
G|-----7------------12-------------12 ----------------------|  
D|----------------------------------------------------------|
A|----------------------------------------------------------|   
E|----------------------------------------------------------|
work down to a tea 


E|----2----------------2------------------------------------|  
B|----3----------------2------------------------------ -----|  
G|----2----------------2------------------------------------|  
D|-0---------------0----------------------------------------|  
A|----------------------------------------------------------|   
E|----------------------------------------------------------|
but now somethings wrong 

E|---7---7-----------10---12h10-----------------------------|  
B|---8---8-----------11----------11-------------------------|  
G|-----7-------------12--------------12---------------------|  
D|----------------------------------------------------------|
A|----------------------------------------------------------|   
E|----------------------------------------------------------|
between you and me


(you can make your ouwn placking)
          Bm                              A
E|------------2--------------------------0------------------|  
B|---------------3---------------------2---2----------------| 
G|------4----------4-----------------2-------2--------------| 
D|----4---4----------4-------------2------------------------|
A|--2----------------------------0--------------------------|  
E|----------------------------------------------------------|
       i was wrong     so wrong 

           G                       Gm
E|------------1-----------------------3---------------------|
B|--------------0-----------------------3-------------------|
G|--------0-------0---------------3-------3-----------------|  
D|------0-----------------------5---------------------------|
A|----2-----------------------5-----------------------------|
E|--3----------------------3--------------------------------|
       to think that     i could stay 



          Bm                              A
E|-------------2-----------------------0--------------------|  
B|---------------3-------------------2---2------------------|  
G|-------4---------4---------------2-------2----------------|  
D|-----4---4---------4-----------2--------------------------|
A|---2-------------------------0----------------------------|   
E|----------------------------------------------------------|
  Seasons come and               seasons go
 
          G                      A
E|-----------1------------------------9h8-------------------| 
B|-------------0---------2----------9-----9-----------------| 
G|--------0------0-------2-----4s8----------8/5-----5h6-----|
D|------0----------------2----------------------------------|
A|----2------------------0----------------------------------|  
E|--3-------------------------------------------------------|
  but todays another day  


verse 2 (do the first verse) 

I wanna say nows the time
to go our seperate ways
I dont know  i might be wrong                       
could we find the strenght to say             
that our love our love           
seems a better day               
and whos to say if i had the chance              
gonna make the choice to stay

 
"hope you guyz plack this ryt :))"

Chorus
     D 
if you ever have something
     A
that you wanted to say
      G
you better start talking
       A
before i go waay
   D               
i wish that i could say
   A             
I'll be feeling okay
     G                   A
and i'll be bringin home a better days
    Bm
but i wont feel right 
    G       A          D
knowing I was lying to you

bridge:
   Bm                 A
ever wasted all my time
 G                  Bm
they try to make amend
  Bm                      A
Ill try to read between the lines
   G       A       D
I dont see the  end

Adlib ; ?
Reapeat : 2x Chorus


by: lugaaw@yahoo.com " for meemaws "



comments
We did not receive enough feedback on this tab! Please rate:
print report bad tab
1 2 3 4 5
I want to post or [tab]
guest
You may want to rate the tab now too:
select rating
Please do not post tabs as comments. Select "correction" instead!