Oops, an error
Loading. Please wait.

Innocence tab

6,605 views 18 this week
2 commentsread comments
1 2 3 4 5
1 last vote to show rating
add to favorites
×
Save as Personal and add changes to this tab that will be seen only by you. Learn more ›
×
You can save this tab as Personal to edit and correct it or add notes. All changes will be seen only by you. Learn more »
launch autoscroll
font size
0
reset
how to read this tab
guitar tuner
edit
Autoscroll
slow
fast
+/-
esc
set tempo
stop
Author
Harlequin Official Website - http://www.highnorthrecords.com/bands/harlequin

-----------------------------------------------------------------------------
                            INNOCENCE - Harlequin
-----------------------------------------------------------------------------

Tabbed by: Anne Drury   (zerofret)
Email: zerofret_ad@hotmail.com
Date: December 30, 2005

Written by: George Belanger, Glen Willows
Album: "Love Crimes"    (1980, Epic Records)   and 
       "Harlequin - Greatest Hits"    (1986, Epic Records)

Notes:

-4/4 time
-key of D Major, except for Pre-Chorus which is in B minor -- guitar solo
 is in B minor
-for harmonics <> in 1st Chorus, fret the note indicated, then play 
 harmonic an octave (12 frets) up from that note with other hand (touch 
 harmonic with index finger, pluck with pick or thumb)
-the harmonics part is shown on the Gtr 2 staff (to save space), but is
 actually a separate part (it overlaps the Gtr 2 part a bit)
-3 guitar parts are shown, playing the following:
    Gtr 1 - palm muted 5th chords playing an 8th note rhythm
    Gtr 2 - mostly 5th chords
    Gtr 3 - keyboard parts transcribed for guitar


INTRO:


Chords:   G    F#m    Em    A


Gt1 D5                                  D5
 E|-----------------|-----------------|-----------------|-----------------|
 B|-----------------|-----------------|-----------------|-----------------|
 G|-7-7-7-----------|-----------------|-7-7-7-----------|-----------------|
 D|-7-7-7-----------|-----------------|-7-7-7-----------|-----------------|
 A|-5-5-5-----------|-----------------|-5-5-5-----------|-----------------|
 E|-----------------|-----------------|-----------------|-----------------|
Gt|2                                                                      |
  |                                                                       |
Gt|3                                                                      |
 E|-----------------|-----------------|-----------------|-----------------|
 B|-7-8-7-----------|-----------------|-7-8-7-----------|-----------------|
 G|-7-7-7-----------|-----------------|-7-7-7-----------|-----------------|
 D|-----------------|-----------------|-----------------|-----------------|
 A|-----------------|-----------------|-----------------|-----------------|
 E|-----------------|-----------------|-----------------|-----------------|


FIGURE 1 -                                                             -----

Gt1 D5                                  D5
 E|-----------------|-----------------|-----------------|-----------------|
 B|-----------------|-----------------|-----------------|-----------------|
 G|-7-7-7-----------|-----------------|-7-7-7-----------|-----------------|
 D|-7-7-7-----------|-----------------|-7-7-7-----------|-----------------|
 A|-5-5-5-----------|-----------------|-5-5-5-----------|-----------------|
 E|-----------------|-----------------|-----------------|-----------------|
Gt|2                                                                      |
  |                                                                       |
Gt|3                                                                      |
 E|-----------------|-----------------|-----------------|-----------------|
 B|-7-8-7-7-7-5-7-8=|=--8-8-7-5---5---|-7-8-7-7-7-5-7-8=|=--8-8-7-5-------|
 G|-7-7-7-7-7-------|-------7-7---6---|-7-7-7-7-7-------|-------7-6-------|
 D|-----------7-7-9=|=--9-9-----------|-----------7-7-8=|=--8-8-----------|
 A|-----------------|-----------------|-----------------|-----------------|
 E|-----------------|-----------------|-----------------|-----------------|



Gt1 D5                                  G      F#m       Em       A
 E|-----------------|-----------------|-----------------|-----------------|
 B|-----------------|-----------------|-----------------|-----------------|
 G|-7-7-7-----------|-----------------|-----------------|---------2-------|
 D|-7-7-7-----------|-----------------|-5-------4-------|-2-------2-------|
 A|-5-5-5-----------|-----------------|-5-------4-------|-2-------0-------|
 E|-----------------|-----------------|-3-------2-------|-0---------------|
Gt|2                                                                      |
  |                                                                       |
Gt|3                                                                      |
 E|-----------------|-----------------|-----------------|-----------------|
 B|-7-8-7-7-7-5-7-8=|=--8-8-7-5---5---|-----------------|---------------5-|
 G|-7-7-7-7-7-------|-------7-7---6---|-7-------7-------|---------4-6-7---|
 D|-----------7-7-9=|=--9-9-----------|-----------------|-5-6-7-8---------|
 A|-----------------|-----------------|-----------------|-----------------|
 E|-----------------|-----------------|-----------------|-----------------|

                                                            (end of Fig. 1)
                                                                      ------

1ST VERSE:


Gt1 D5                                  D5
 E|-----------------|-----------------|-----------------|-----------------|
 B|-----------------|-----------------|-----------------|-----------------|
 G|-7-7-7-----------|-----------------|-7-7-7-----------|-----------------|
 D|-7-7-7-----------|-----------------|-7-7-7-----------|-----------------|
 A|-5-5-5-----------|-----------------|-5-5-5-----------|-----------------|
 E|-----------------|-----------------|-----------------|-----------------|
Gt|2                                                                      |
  |                                                                       |
Gt|3                                                                      |
 E|-----------------|-----------------|-----------------|-----------------|
 B|-7-8-7-----------|-----------------|-7-8-7-----------|-----------------|
 G|-7-7-7-----------|-----------------|-7-7-7-----------|-----------------|
 D|-----------------|-----------------|-----------------|-----------------|
 A|-----------------|-----------------|-----------------|-----------------|
 E|-----------------|-----------------|-----------------|-----------------|
        One dime is all it cost me, and       I found out for sure,you know



Gt1 D5                                  G          F#m   Em       A
 E|-----------------|-----------------|-----------------|-----------------|
 B|-----------------|-----------------|-----------------|-----------------|
 G|-7-7-7-----------|-----------------|-----------------|---------2-------|
 D|-7-7-7-----------|-----------------|-5-5-5-------4---|-2-------2-------|
 A|-5-5-5-----------|-----------------|-5-5-5-------4---|-2-------0-------|
 E|-----------------|-----------------|-3-3-3-------2---|-0---------------|
Gt|2                                                                      |
  |                                                                       |
Gt|3                                                                      |
 E|-----------------|-----------------|-----------------|-----------------|
 B|-7-8-7-----------|-----------------|-----------------|-----------------|
 G|-7-7-7-----------|-----------------|-----------------|-----------------|
 D|-----------------|-----------------|-----------------|-----------------|
 A|-----------------|-----------------|-----------------|-----------------|
 E|-----------------|-----------------|-----------------|-----------------|
         That you double-crossed me,   Just how much can I endure?



2ND VERSE:   (played same as 1st Verse)

Last night I was walkin' and I
I saw you with my friend again
Well, I'm not one for talking
     G     F#m       Em         A
At least I don't try to pretend  (for last line, chords are the same as 1st
                                 Verse, but rhythm is a bit different)


PRE-CHORUS:


Gt1 B5               Bb5               A5                Ab5
 E|-----------------|-----------------|-----------------|-----------------|
 B|-----------------|-----------------|-----------------|-----------------|
 G|-----------------|-----------------|-----------------|-----------------|
 D|-9-9-9-----------|-----------------|-7-7-7-----------|-----------------|
 A|-9-9-9-----------|-----------------|-7-7-7-----------|-----------------|
 E|-7-7-7-----------|-----------------|-5-5-5-----------|-----------------|
Gt|2                                                                      |
  |                                                                       |2x
Gt|3                                                                      |
 E|-------7---------|---------0-------|-------7---------|---------0-------|
 B|---------7-----2=|=--2-3-------2---|---------7-----2=|=--2-3-------2---|
 G|-----------7-4-3=|=--3-3---3---3---|-----------7-4-1=|=--1-1---1---1---|
 D|-----------------|-----------------|-----------------|-----------------|
 A|-----------------|-----------------|-----------------|-----------------|
 E|-----------------|-----------------|-----------------|-----------------|
   Innocence, whoo - ooo               Innocence, whoo - ooo


   G5                                  A5
 E -----------------|-----------------|-----------------|-----------------|
 B -----------------|---------3-------|-----------------|---------5-------|
 G -------------4---|-----4-5---------|-------------6---|-----6-7---------|
 D -5-------5-------|---5-------------|-7-------7-------|---7-------------|
 A -5---------------|-----------------|-7---------------|-----------------|
 E -3---------------|-----------------|-5---------------|-----------------|
   Oh, what a lie, baby                Don't even try, lady


Then: Play FIGURE 1


3RD VERSE:    (played same as 1st Verse)

I laughed when I first met you
How you were so demure, you know
Now that I don't trust you
You just say I've lost control


4TH VERSE:    (played same as 2nd Verse)

You said you'd always love me
Said you'd be my friend
You had your fingers crossed
      G      F#m   Em         A
You stuck it to me in the end


Play PRE-CHORUS


CHORUS:    (play 2x)


Gt1 D5                                  D5
 E|-----------------|-----------------|-----------------|-----------------|
 B|-----------------|-----------------|-----------------|------------<7>\/|
 G|-7-7-7-----------|-----------------|-7-7-7-----------|---------<7>-----|
 D|-7-7-7-----------|-----------------|-7-7-7-----------|------<7>--------|
 A|-5-5-5-----------|-----------------|-5-5-5-----------|-----------------|
 E|-----------------|-----------------|-----------------|-----------------|
Gt|2                                                                      |
  |                                                                       |
Gt|3                                                                      |
 E|-----------------|-----------------|-----------------|-----------------|
 B|-7-8-7-7-7-5-7-8=|=--8-8-7-5---5---|-7-8-7-7-7-5-7-8=|=--8-8-7-5-------|
 G|-7-7-7-7-7-------|-------7-7---6---|-7-7-7-7-7-------|-------7-6-------|
 D|-----------7-7-9=|=--9-9-----------|-----------7-7-8=|=--8-8-----------|
 A|-----------------|-----------------|-----------------|-----------------|
 E|-----------------|-----------------|-----------------|-----------------|
   Innocence,yes it's all you ever     Innocence,yes it's all you'll 
                              pleaded,                       ever plead
              

Gt1 D5                                  G      F#m       Em       A
 E|-----------------|-----------------|-----------------|-----------------|
 B|-----------------|-----------------|-----------------|-----------------|
 G|-7-7-7-----------|-----------------|-----------------|---------2-------|
 D|-7-7-7-----------|-----------------|-5-------4-------|-2-------2-------|
 A|-5-5-5-----------|-----------------|-5-------4-------|-2-------0-------|
 E|-----------------|-----------------|-3-------2-------|-0---------------|
Gt|2                                                                      |
  |                                                                       |
Gt|3                                                                      |
 E|-----------------|-----------------|-----------------|-----------------|
 B|-7-8-7-7-7-5-7-8=|=--8-8-7-5---5---|-----------------|-----------------|
 G|-7-7-7-7-7-------|-------7-7---6---|-----------------|-----------------|
 D|-----------7-7-9=|=--9-9-----------|-----------------|-----------------|
 A|-----------------|-----------------|-----------------|-----------------|
 E|-----------------|-----------------|-----------------|-----------------|
   Innocence,yes it's all you                  Yes, it's all you ever
                         ever plead to me,                       plead(ed)


GUITAR SOLO:    
(play Pre-Chorus as backing to guitar solo)    


 E -----------------|-----------------|-----------------|-----------------|
 B -----------------|-----------------|-----------------|-----------------|
 G -----------------|---------------2-|-6=^(7)\4--------|-----------------|
 D -----------------|---------0--2----|-----------------|-----------------|
 A -2~--------------|---2--4----------|-----------------|-----------------|
 E -----------------|-----------------|-----------------|------------12\--|



 E -----------------------------|-----------------------------|
 B -----------------------------|-----------------------------|
 G ------7-9-9^(11)r9-7-9^(11)--|------7-9=^(11)r9-7-9^(11)---|
 D ---/9------------------------|---/9------------------------|
 A -----------------------------|-----------------------------|
 E -----------------------------|-----------------------------|



 E -----------------------------|-----------------------------|
 B ----------------------10^(12)|=r10^(12)~-------------------|
 G ------7-9=^(11)r9-7----------|-----------------------------|
 D ---/9------------------------|-----------------------------|
 A -----------------------------|-----------------------------|
 E -----------------------------|-----------------------------|


   G5
 E -----------------------------|-----------------------------|
 B --12--12--14----15--14--15---|--17--15--17----19--17--19---|
 G -----------------------------|-----------------------------|
 D -----------------------------|-----------------------------|
 A -----------------------------|-----------------------------|
 E -----------------------------|-----------------------------|


   A5
 E -----------------------------|-----------------------------|
 B --20-----19-----17-----------|-20^(22)r20^(22)~------------|
 G -----------------------19----|-----------------------------|
 D -----------------------------|-----------------------------|
 A -----------------------------|-----------------------------|
 E -----------------------------|-----------------------------|


5TH VERSE:    (variation on 1st Verse)


Gt1 D5                                  D5
 E|-----------------|-----------------|-----------------|-----------------|
 B|-----------------|-----------------|-----------------|------------<7>\/|
 G|-7-7-7-----------|-----------------|-7-7-7-----------|---------<7>-----|
 D|-7-7-7-----------|-----------------|-7-7-7-----------|------<7>--------|
 A|-5-5-5-----------|-----------------|-5-5-5-----------|-----------------|
 E|-----------------|-----------------|-----------------|-----------------|
Gt|2                                                                      |
  |                                                                       |
Gt|3                                                                      |
 E|-----------------|-----------------|-----------------|-----------------|
 B|-7-8-7-7-7-5-7-8=|=--8-8-7-5---5---|-7-8-7-7-7-5-7-8=|=--8-8-7-5-------|
 G|-7-7-7-7-7-------|-------7-7---6---|-7-7-7-7-7-------|-------7-6-------|
 D|-----------7-7-9=|=--9-9-----------|-----------7-7-9=|=--9-9-----------|
 A|-----------------|-----------------|-----------------|-----------------|
 E|-----------------|-----------------|-----------------|-----------------|
        One dime is all it cost me, and       I found out for sure,you know



Gt1 D5                                  G          F#m   Em       A
 E|-----------------|-----------------|-----------------|-----------------|
 B|-----------------|-----------------|-----------------|-----------------|
 G|-7-7-7-----------|-----------------|-----------------|---------2-------|
 D|-7-7-7-----------|-----------------|-5-5-5-------4---|-2-------2-------|
 A|-5-5-5-----------|-----------------|-5-5-5-------4---|-2-------0-------|
 E|-----------------|-----------------|-3-3-3-------2---|-0---------------|
Gt|2                                                                      |
  |                                                                       |
Gt|3                                                                      |
 E|-----------------|-----------------|-----------------|-----------------|
 B|-7-8-7-7-7-5-7-8=|=--8-8-7-5---5---|-----------------|-----------------|
 G|-7-7-7-7-7-------|-------7-7---6---|-----------------|-----------------|
 D|-----------7-7-9=|=--9-9-----------|-----------------|-----------------|
 A|-----------------|-----------------|-----------------|-----------------|
 E|-----------------|-----------------|-----------------|-----------------|
         That you double-crossed me,   Just how much can I endure?


Play CHORUS 


CHORUS:    (guitar parts are played same as previous Choruses)

D5
Innocence - yes, it's all you ever pleaded
D5
Innocence - yes, it's all you ever plead
D5
Innocence - yes, it's all you ever plead to me
       G               F#m
(It's all you'll ever plead)
          Em             A
Yes, it's all you ever plead to me
       G               F#m
(It's all you'll ever plead)
          Em             A
Yes, it's all you ever plead to me
       G               F#m
(It's all you'll ever plead)
          Em             A
Yes, it's all you ever pleaded

    D5
 E|-----------------|
 B|-----------------|
 G|-7-7-7-----------|
 D|-7-7-7-----------|
 A|-5-5-5-----------|
 E|-----------------|
  |                 |
  |                 |
  |                 |
 E|-----------------|
 B|-7-8-7-----------|
 G|-7-7-7-----------|
 D|-----------------|
 A|-----------------|
 E|-----------------|
   Innocence


-----------------------------------------------------------------------------

^...bend                             ~...vibrato
r...release bend                     <>..harmonic
/...slide up                         \/..trem bar dip
=...hold note                                    
                       
(This file is the transcriber's own work and represents 
their interpretation of the song.)

            
            
Suggest correction
Creating personal tab
Creating personal tab
You can edit any tab online and save it as your Personal.

You can edit, replace or remove any tab part or add personal notes – all changes will be seen only by you.

Personal tabs can be accessed anytime from any device, even offline.
Learn more »
Give kudos to tab author, rate the tab!
1 2 3 4 5
comments
print report bad tab
2 comments total.
0 reply
zerofret 980 Feb 19, 2007 07:44 PM

Other Harlequin tabs can be found here --
http://www.angelfire.com/planet/zerofret/

guest
You may want to rate the tab now too:
select rating
Wanna post a correction for this tab? Suggest correction