Oops, an error
Loading. Please wait.

Thinking Of You Tab

version 2
version 2

Whole song

Interactive

647 views 9 this week
no commentswrite comment
1 2 3 4 5
3 more votes to show rating
add to favorites
launch autoscroll
font size
0
reset
how to read this tab
guitar tuner
Autoscroll
slow
fast
+/-
esc
set tempo
stop
Help us to improve Ultimate-Guitar.com Take our survey!
×
Author
Difficulty
novice
                             Thinking of You - Harlequin
-------------------------------------------------------------------------------
Tabbed by:R11n
E-mail:

Tuning:E A D G B E  standard

e|----------------------------------------------------------------------------|
B|----------------------------------------------------------------------------|
G|---6---7---9-----7---6----6---7----9---7-----6----6-----7----6--------------|
D|----7---7----7----7--------7---7----7----7----------7-----7----7------------|
A|-0---0----0----0---0----0----0---0---0-----0-----0----0----0-----0----------|
E|----------------------------------------------------------------------------|

e|-------------------5--------------------------------------------------------|
B|-------------------5--------------------------------------------------------|
G|--4-----2-----2----2---------repeat-2X--------------------------------------|
D|---5-----3----2----2--------------------------------------------------------|
A|----0---------0----0--------------------------------------------------------|
E|----------------------------------------------------------------------------|

e|-------------------------------------------------------------------------|
B|-------------------------------------------------------------------------|
G|-------------------------------------------------------------------------|
D|---------------2----------------------2----------2-----------------------|
A|---------5-4-2-0-----5-4-2-x----5-4-2-0----5-4-2-2----let ring-----------|
E|---------------------------3---------------------0-----------------------|
                   pm          pm         pm
e|----------------------------------------------------------------------------|
B|----------------------------------------------------------------------------|
G|--0h2------2---------2-----2-2----------------------------------------------|
D|--0h2------2---------2-----2-2--------repeat 2X-----------------------------|
A|--0---0--0-0-0-0-0-0-0-0-0-0-0-0-0------------------------------------------|
E|----------------------------------------------------------------------------|
        p  p   p p p p   p p     p p
e|----3--3----3--3------------------------------------------------------------|
B|----3--3----2--2------------------------------------------------------------|
G|----0--0----3--3------------------------------------------------------------|
D|----0--0----0--0----------2-----2---------2-----2-2-------------------------|
A|----x---------------5-4-2-0-0-0-0-0-0-0-0-0-0-0-0-0-0-0---------------------|
E|----3--3--------------------------------------------------------------------|
                              p p   p p p p   p p
e|----------------------------------------------------------------------------|
B|----------------------------------------------------------------------------|
G|--0h2------2---------2-----2-2----------------------------------------------|
D|--0h2------2---------2-----2-2--------repeat 2X-----------------------------|
A|--0---0--0-0-0-0-0-0-0-0-0-0-0-0-0------------------------------------------|
E|----------------------------------------------------------------------------|

e|-------------------------------------------------------------------------|
B|-------------------------------------------------------------------------|
G|-----------------------------------------------2-------------------------|
D|---------------2----------------------2-----3--2-------------------------|
A|---------5-4-2-0-m---5-4-2-x-m--5-4-2-0-m---3--0-------------------------|
E|---------------------------3----------------1----------------------------|

        basically repeat throughout song

My first tab.. I love the classics.. thanxx
************************************

| /   slide up
| \   slide down
| h   hammer-on
| p   pull-off
| ~   vibrato
| +   harmonic
| x   Mute note
| b   Bend
| pb  Pre-bend
| br  Bend release
| pbr Pre-bend release
| brb Bend release bend

************************************
Suggest correction
Give kudos to tab author, rate the tab!
1 2 3 4 5
comments
print report bad tab
guest
You may want to rate the tab now too:
select rating
Wanna post a correction for this tab? Suggest correction