Oops, an error
Loading. Please wait.

Axel F tab

version 1
version 1

Whole song

Interactive

32,462 views 105 this week
10 commentsread comments
1 2 3 4 5
x 28
add to favorites
×
Save as Personal and add changes to this tab that will be seen only by you. Learn more ›
×
You can save this tab as Personal to edit and correct it or add notes. All changes will be seen only by you. Learn more »
launch autoscroll
font size
0
reset
how to read this tab
guitar tuner
edit
Autoscroll
slow
fast
+/-
esc
set tempo
stop
Author
Difficulty
----------------------------------------------------------------------------
                         Axel F Theme - Harold Faltermeyer
----------------------------------------------------------------------------
Tabbed by: SickorSaneSF
Email: ps2champ1204@charter.net

Tuning: Standard


Right so there's 2 ways you can play this song. They both sound exactly the same but I find 
the second one much easier... but to each his own.

Way 1:
e|-1-4---1-1-6-1----1-8---1-1-9-8-4---1-8-13--1-------3-1------------------|
B|---------------4------------------------------4-4-1----------------------|
G|-------------------------------------------------------------------------|
D|-------------------------------------------------------------------------|
A|-------------------------------------------------------------------------|
E|-------------------------------------------------------------------------|

Way 2:
e|----4-------6--------8-------9-8------8-13-------------------------------|
B|--6-----6-6---6-4--6-----6-6-----9--6-------6-------8-6------------------|
G|----------------------------------------------8-8-5----------------------|
D|-------------------------------------------------------------------------|
A|-------------------------------------------------------------------------|
E|-------------------------------------------------------------------------|


Email with corrections, questions, praise, etc.

            
            
Suggest correction
Creating personal tab
Creating personal tab
You can edit any tab online and save it as your Personal.

You can edit, replace or remove any tab part or add personal notes – all changes will be seen only by you.

Personal tabs can be accessed anytime from any device, even offline.
Learn more »
comments
print report bad tab
10 comments total. Showing first comments.
+1 reply
Olololololo 36 Apr 06, 2007 01:43 AM

Good work, dude ;]

+1 reply
tictacfanman 10 Feb 01, 2009 11:01 AM

i can play this easily so u were right about it being novice though the ending is tricky. (way 2) 5 star

0 reply
audwin09 81 Jul 30, 2009 04:00 AM

damn...

so good...

it exact!!!

every single one...

guest
You may want to rate the tab now too:
select rating
Wanna post a correction for this tab? Suggest correction