Oops, an error
Loading. Please wait.

Memories Tab

version 3
version 3

Whole song

3,489 views 18 this week
1 commentread comment
1 2 3 4 5
2 more votes to show rating
add to favorites
launch autoscroll
font size
0
reset
how to read this tab
guitar tuner
×
Best way to learn
"Memories"
Autoscroll
slow
fast
+/-
esc
set tempo
stop
Author
Tuning
E A D G B E
Title: Memories
Artist: Harold Faltermeyer

This is a song from TOP GUN.
It's the entire song.

|----------------------------12---10-----------------------------------------|
|---6---5----------------------------13-11-10-10-8---------------12-12-10-8--|
|---------7-5-------------12-----------------------10----10-9-8--------------|
|-7------------8-8-7-8--------------------------------------------------------|
|----------------------------------------------------------------------------|
|----------------------------------------------------------------------------|

|----------------------------------------------------------------------------|
|----------------------------------------------------------------------------|
|-11-11-9-9-8---9-11-12--14-16-7----9-11-12-12----14--16--7----9-11-12-12----|
|----------------------------------------------------------------------------|
|----------------------------------------------------------------------------|
|----------------------------------------------------------------------------|

|----------------------------12---10-----------------------------------------|
|---6---5----------------------------13-11-10-10-8---------------12-12-10-8--|
|---------7-5-------------12-----------------------10----10-9-8--------------|
|-7------------8-8-7-8-------------------------------------------------------|
|----------------------------------------------------------------------------|
|----------------------------------------------------------------------------|

|----------------------------------------------------------------------------|
|----------------------------------------------------------------------------|
|-11-11-9-9-8---9-11-12--14-16-7----9-11-12-12-------------------------------|
|----------------------------------------------------------------------------|
|----------------------------------------------------------------------------|
|----------------------------------------------------------------------------|

|----------------------------12---10-----------------------------------------|
|---6---5----------------------------13-11-10-10-8---------------12-12-10-8--|
|---------7-5-------------12-----------------------10----10-9-8--------------|
|-7------------8-8-7-8-------------------------------------------------------|
|----------------------------------------------------------------------------|
|----------------------------------------------------------------------------|

|----------------------------------------------------------------------------|
|----------------------------------------------------------------------------|
|-11-11-9-9-8---9-11-12-12-11-11-9-9-8-8----8--------------------------------|
|----------------------------------------11----------------------------------|
|----------------------------------------------------------------------------|
|----------------------------------------------------------------------------|

|----------------------------12---10-----------------------------------------|
|---6---5----------------------------13-11-10-10-8---------------12-12-10-8--|
|---------7-5-------------12-----------------------10--10-9-8----------------|
|-7------------8-8-7-8-------------------------------------------------------|
|----------------------------------------------------------------------------|
|----------------------------------------------------------------------------|
Suggest correction
Give kudos to tab author, rate the tab!
1 2 3 4 5
comments
print report bad tab
1 comment total.
0 reply
chanman2087 10 Oct 18, 2009 05:17 PM

good job man. This one is it, without question. Recommended for ALL as this is from quite the classic...

guest
You may want to rate the tab now too:
select rating
Wanna post a correction for this tab? Suggest correction