Oops, an error
Loading. Please wait.

Burbank Tab

7 views 1 this week
no commentswrite comment
1 2 3 4 5
2 more votes to show rating
add to favorites
launch autoscroll
font size
0
reset
how to read this tab
guitar tuner
Autoscroll
slow
fast
+/-
esc
set tempo
stop
Help us to improve Ultimate-Guitar.com Take our survey!
×
Author
Difficulty
intermediate
[Intro] x4
e|----2------------------------|
B|-----------------------------|
G|----------2---------2/4------|
D|----0------------------------|
A|-----------------------------|
E|----------2----2----2/3------|

[Verse] Repeat until chorus
e|----2------------------------|
B|-----------------------------|
G|----------2---------2/4------|
D|----0------------------------|
A|-----------------------------|
E|----------2----2----2/3------|
  Take away...

[Chorus]
e|----2------------------------2-------------------------------------------| 
B|-------------------------------------------------------------------------|
G|----------2---------2/4-----------2---------2/4-----2----6----4----4/6---|
D|----0------------------------0-------------------------------------------|
A|-------------------------------------------------------------------------|
E|----------2----2----2/3-----------2----2----2/3-----1----5----3----3/5---|
  What I wouldn't do...

[Verse] Repeat until chorus
e|----2------------------------|
B|-----------------------------|
G|----------2---------2/4------|
D|----0------------------------|
A|-----------------------------|
E|----------2----2----2/3------|
  We were in love...

[Chorus]
e|----2------------------------2----------------------------------------| 
B|----------------------------------------------------------------------|
G|----------2---------2/4-----------2---------2/4-----2----6----4-------|
D|----0------------------------0----------------------------------------|
A|----------------------------------------------------------------------|
E|----------2----2----2/3-----------2----2----2/3-----1----5----3-------|
  What I wouldn't do...

[Bridge]
e|---------------------------|
B|---------------------------|
G|----2-----6----4----4/6----|
D|---------------------------|
A|---------------------------|
E|----1-----5----3----3/5----|
  I am not like him


[Verse] Repeat until chorus
e|----2------------------------|
B|-----------------------------|
G|----------2---------2/4------|
D|----0------------------------|
A|-----------------------------|
E|----------2----2----2/3------|
  We were in love...

[Chorus]
e|----2------------------------2-------------------------------------------| 
B|-------------------------------------------------------------------------|
G|----------2---------2/4-----------2---------2/4-----2----6----4----4/6---|
D|----0------------------------0-------------------------------------------|
A|-------------------------------------------------------------------------|
E|----------2----2----2/3-----------2----2----2/3-----1----5----3----3/5---|
  What I wouldn't do...

[Verse] Repeat until end
e|----2------------------------|
B|-----------------------------|
G|----------2---------2/4------|
D|----0------------------------|
A|-----------------------------|
E|----------2----2----2/3------|
  We were in love...


************************************

| /  Slide up

************************************
Suggest correction
Give kudos to tab author, rate the tab!
1 2 3 4 5
comments
print report bad tab
guest
You may want to rate the tab now too:
select rating
Wanna post a correction for this tab? Suggest correction