Oops, an error
Loading. Please wait.

Sense Of Home Tab

1,504 views 75 this week
no commentswrite comment
1 2 3 4 5
x 4
add to favorites
launch autoscroll
font size
0
reset
how to read this tab
guitar tuner
×
Best way to learn
"Sense Of Home"
Autoscroll
slow
fast
+/-
esc
set tempo
stop
Author
Difficulty
Capo
  follow
intermediate
8th fret
-------------------------------------------------------------------------------
                Harrison Storm - Sense of Home Intro
-------------------------------------------------------------------------------
Tabbed by: Chau Luu
E-mail: chaulink@gmail.com

Tuning: Standard (EADGBe)
Capo: 8th Fret


-------------------------------------------------------------------------------
                           Finger Picking Pattern
-------------------------------------------------------------------------------

   Em                C               G
e|-------0-------------------------------------------------------------||
B|-------0--------0--------3p1-----1p0-----0--------0-------0-------0--||
G|---0--------0--------0-------0-------0--------0-------0-------0------|| 
D|-----2--------2--------2-------2-------0--------0-------0-------0----||  
A|-------------------3-------------------------------------------------||
E|-0---------------------------------3----------------3-------2--------||(x4)

************************************

| p  Pull-off

************************************
Suggest correction
comments
print report bad tab
guest
You may want to rate the tab now too:
select rating
Wanna post a correction for this tab? Suggest correction