Oops, an error
Loading. Please wait.

Jump In The Line bass

version 1
version 1

Whole song

  • Somewhat simplified but complete bass tab to Harry... Show more

Interactive

154 views 3 this week
no commentswrite comment
1 2 3 4 5
3 more votes to show rating
add to favorites
×
Save as Personal and add changes to this tab that will be seen only by you. Learn more ›
×
You can save this tab as Personal to edit and correct it or add notes. All changes will be seen only by you. Learn more »
launch autoscroll
font size
0
reset
guitar tuner
edit
Autoscroll
slow
fast
+/-
esc
set tempo
stop
Author
Difficulty
About this tab version
Somewhat simplified but complete bass tab to Harry Belafonte's "Jump in the Line". Was this info helpful? Yes No
Title: Jump in the Line
Artist: Harry Belafonte
Tabber: Carl Stephenson
Tempo = 117
Acoustic Bass

  [intro]
G |-------|-------|----------------------------------------------------|
D |-------|-------|--3.----------------------5.----------------2-------|
A |-------|-------|--------------3.-------------------3L-3-------------|
E |-------|-------|----------------------------------------------------|


G |--------------2.------------------------------------|
D |--3.----------------------5.----------------2-------|
A |-----------------------------------3L-3-------------|
E |----------------------------------------------------|


G |----------------------------------------------------|
D |--3.----------------------5.----------------2-------|
A |--------------3.-------------------3L-3-------------|
E |----------------------------------------------------|


G |--------------2.------------------------------------|
D |--3.----------------------5.----------------2-------|
A |-----------------------------------3L-3-------------|
E |----------------------------------------------------|


G |----------------------------------------------------|
D |--3.----------------------5.----------------2-------|
A |--------------3.-------------------3L-3-------------|
E |----------------------------------------------------|


G |--------------2.------------------------------------||
D |--3.----------------------5.----------------2-------||
A |-----------------------------------3L-3-------------||
E |----------------------------------------------------||

  [refrain]

G |---------------------------------------------------|
D |o3.----------------------3.----------------2-------|
A |o------------3.-------------------3L-3-------------|
E |---------------------------------------------------|


G |----------------------------------------------------|
D |--3.----------------------5.----------------2-------|
A |--------------3.-------------------3L-3-------------|
E |----------------------------------------------------|


G |----------------------------------------------------|
D |--5.----------------------5.----------------2-------|
A |--------------3.-------------------3L-3-------------|
E |----------------------------------------------------|


G |----------------------------------------------------|
D |--5.----------------------3.----------------2-------|
A |--------------3.-------------------3L-3-------------|
E |----------------------------------------------------|


G |----------------------------------------------------|
D |--3.----------------------3.----------------2-------|
A |--------------3.-------------------3L-3-------------|
E |----------------------------------------------------|


G |----------------------------------------------------|
D |--3.----------------------5.----------------2-------|
A |--------------3.-------------------3L-3-------------|
E |----------------------------------------------------|


G |----------------------------------------------------|
D |--5.----------------------5.----------------2-------|
A |--------------3.-------------------3L-3-------------|
E |----------------------------------------------------|

                                                        [verse]
G |----------------------------------------------------||--------3.------|
D |--5.----------------------3.----------------2-------||--3.------------|
A |--------------3.-------------------3L-3-------------||----------------|
E |----------------------------------------------------||----------------|


G |----------------|--------3.------|----------------||
D |--3.------------|--3.------------|--3.------------||
A |--------3.------|----------------|--------3.------||
E |----------------|----------------|----------------||

  
G |----------------------------------------------------|
D |--3.----------------------5.----------------2-------|
A |--------------3.-------------------3L-3-------------|
E |----------------------------------------------------|


G |--------------2.------------------------------------|
D |--3.----------------------5.----------------2-------|
A |-----------------------------------3L-3-------------|
E |----------------------------------------------------|


G |----------------------------------------------------|
D |--3.----------------------5.----------------2-------|
A |--------------3.-------------------3L-3-------------|
E |----------------------------------------------------|


G |--------------2.------------------------------------|
D |--3.----------------------5.----------------2-------|
A |-----------------------------------3L-3-------------|
E |----------------------------------------------------|


G |----------------------------------------------------|
D |--3.----------------------5.----------------2-------|
A |--------------3.-------------------3L-3-------------|
E |----------------------------------------------------|


G |--------------2.------------------------------------|
D |--3.----------------------5.----------------2-------|
A |-----------------------------------3L-3-------------|
E |----------------------------------------------------|


G |----------------------------------------------------|
D |--3.----------------------5.----------------2-------|
A |--------------3.-------------------3L-3-------------|
E |----------------------------------------------------|


G |--------------2.-----------------------------------||
D |--3.----------------------5.----------------2-----o||
A |-----------------------------------3L-3-----------o||
E |---------------------------------------------------||

  [solo]
G |----------------------------------------------------|
D |--3.----------------------3.----------------2-------|
A |--------------3.-------------------3L-3-------------|
E |----------------------------------------------------|


G |----------------------------------------------------|
D |--3.----------------------5.----------------2-------|
A |--------------3.-------------------3L-3-------------|
E |----------------------------------------------------|


G |----------------------------------------------------|
D |--5.----------------------5.----------------2-------|
A |--------------3.-------------------3L-3-------------|
E |----------------------------------------------------|


G |----------------------------------------------------|
D |--5.----------------------3.----------------2-------|
A |--------------3.-------------------3L-3-------------|
E |----------------------------------------------------|


G |----------------------------------------------------|
D |--3.----------------------3.----------------2-------|
A |--------------3.-------------------3L-3-------------|
E |----------------------------------------------------|


G |----------------------------------------------------|
D |--3.----------------------5.----------------2-------|
A |--------------3.-------------------3L-3-------------|
E |----------------------------------------------------|


G |----------------------------------------------------|
D |--5.----------------------5.----------------2-------|
A |--------------3.-------------------3L-3-------------|
E |----------------------------------------------------|


G |----------------------------------------------------||
D |--5.----------------------3.----------------2-------||
A |--------------3.-------------------3L-3-------------||
E |----------------------------------------------------||

  [last refrain]
G |----------------------------------------------------|-------|
D |--3.----------------------3.----------------2-------|-------|
A |--------------3.-------------------3L-3-------------|-------|
E |----------------------------------------------------|-------|


G |----------------------------------------------------|
D |--3.----------------------5.----------------2-------|
A |--------------3.-------------------3L-3-------------|
E |----------------------------------------------------|


G |----------------------------------------------------|-------|
D |--5.----------------------5.----------------2-------|-------|
A |--------------3.-------------------3L-3-------------|-------|
E |----------------------------------------------------|-------|


G |----------------------------------------------------|
D |--5.----------------------3.----------------2-------|
A |--------------3.-------------------3L-3-------------|
E |----------------------------------------------------|


G |----------------------------------------------------|-------|
D |--3.----------------------3.----------------2-------|-------|
A |--------------3.-------------------3L-3-------------|-------|
D |----------------------------------------------------|-------|


G |----------------------------------------------------|
D |--3.----------------------5.----------------2-------|
A |--------------3.-------------------3L-3-------------|
E |----------------------------------------------------|


G |----------------------------------------------------|-------|
D |--5.----------------------5.----------------2-------|-------|
A |--------------3.-------------------3L-3-------------|-------|
E |----------------------------------------------------|-------|

                                                        [verse]
G |----------------------------------------------------||--------3.------|
D |--5.----------------------3.----------------2-------||--3.------------|
A |--------------3.-------------------3L-3-------------||----------------|
E |----------------------------------------------------||----------------|


G |----------------|--------3.------|----------------||
D |--3.------------|--3.------------|--3.------------||
A |--------3.------|----------------|--------3.------||
E |----------------|----------------|----------------||

  
G |----------------------------------------------------|
D |--3.----------------------5.----------------2-------|
A |--------------3.-------------------3L-3-------------|
E |----------------------------------------------------|


G |--------------2.------------------------------------|
D |--3.----------------------5.----------------2-------|
A |-----------------------------------3L-3-------------|
E |----------------------------------------------------|


G |----------------------------------------------------|
D |--3.----------------------5.----------------2-------|
A |--------------3.-------------------3L-3-------------|
E |----------------------------------------------------|


G |--------------2.------------------------------------|
D |--3.----------------------5.----------------2-------|
A |-----------------------------------3L-3-------------|
E |----------------------------------------------------|


G |----------------------------------------------------|
D |--3.----------------------5.----------------2-------|
A |--------------3.-------------------3L-3-------------|
E |----------------------------------------------------|


G |--------------2.------------------------------------|
D |--3.----------------------5.----------------2-------|
A |-----------------------------------3L-3-------------|
E |----------------------------------------------------|


G |----------------------------------------------------|
D |--3.----------------------5.----------------2-------|
A |--------------3.-------------------3L-3-------------|
E |----------------------------------------------------|


G |--------------2.------------------------------------||
D |--3.----------------------5.----------------2-------||
A |-----------------------------------3L-3-------------||
E |----------------------------------------------------||

  [outro]
G |----------------------------------------------------|
D |--3.----------------------3.----------------2-------|
A |--------------3.-------------------3L-3-------------|
E |----------------------------------------------------|


G |----------------------------------------------------|
D |--3.----------------------5.----------------2-------|
A |--------------3.-------------------3L-3-------------|
E |----------------------------------------------------|


G |----------------------------------------------------|
D |--5.----------------------5.----------------2-------|
A |--------------3.-------------------3L-3-------------|
E |----------------------------------------------------|


G |----------------------------------------------------|
D |--5.----------------------3.----------------2-------|
A |--------------3.-------------------3L-3-------------|
E |----------------------------------------------------|


G |----------------------------------------------------||
D |--3.----------------------3.----------------3-------||
A |--------------3.-------------------3L-3-------------||
E |----------------------------------------------------||


            
            
Suggest correction
Creating personal tab
Creating personal tab
You can edit any tab online and save it as your Personal.

You can edit, replace or remove any tab part or add personal notes – all changes will be seen only by you.

Personal tabs can be accessed anytime from any device, even offline.
Learn more »
Give kudos to tab author, rate the tab!
1 2 3 4 5
comments
print report bad tab
guest
You may want to rate the tab now too:
select rating
Wanna post a correction for this tab? Suggest correction