Oops, an error
Loading. Please wait.

Metal Gear Saga Tab

version 2
version 2

Whole song

Interactive

7,323 views 6 this week
2 commentsread comments
1 2 3 4 5
excellent!
x 4
add to favorites
launch autoscroll
font size
0
reset
how to read this tab
guitar tuner
Tab Pro tools
  • play this tab
  • loop segment
  • change instrument
  • show fretboard
  • metronome
×
Best way to learn
"Metal Gear Saga"
Autoscroll
slow
fast
+/-
esc
set tempo
stop
Contributor
This is my version of A Beautiful song made by Harry Gregson Williams
i added some bass notes to give it a sad epic feel to it, enjoy it
some notes may be wrong to you
but watch this video of me playing it so you know how to play it
follow the tab in your head while watching the video ;)

http://www.youtube.com/watch?v=luzVfha-FRM  <<<< The Video of the Song




E|----------------------------------------------------------------------------|
B|-------------------------------------------------------------7---5----------|
G|-----------4--6--7------7---7---6--------------4--6--7----------------------|
D|-------0------------4-----------------------0------------4------------------|
A|----------------------------------------------------------------------------|
e|----7-----------------------5---5--------3-------------------5---5----------|

E|---------------------------7------------------------------------------------|
B|-----------------------7-------------5---3---5---7--------------------------|
G|-----------7--6--4--7-----------4----------------------4---4---3------------|
D|-------0--------------------------------------------------------------------|
A|---------------------------------------------------------------4------------|
e|----7----------------------5----5----3-----------3---------2----------------|

E|----------------------------------------------------------------------------|
B|--------------------------------------------------------------10---10---8---|
G|-----------7--9--10-------10---10-----9---------7--9--10--------------------|
D|-------0--------------7-----------------------------------7-----------------|
A|----------------------------------------------------------------------------|
e|--------------------------------8-----8-----6-----------------------8---8---|

E|-------------------------------10-------------------------------------------|
B|--------------------------10----------------8---6---8----10-----------------|
G|------------10--9--7--10--------------7-------------------------7---7---6---|
D|-------0--------------------------------------------------------------------|
A|--------------------------------------------------------------------0---7---|
e|--------------------------------8-----8-----6-------------8-----------------|

rockdude4life
comments
print report bad tab
2 comments total.
0 reply
jackcooper112 wrote on September 1 2013, 04:37 pm

This is bloody brilliant! Those bass notes are the SHIT!

0 reply
razgrizghost wrote on July 26 2014, 01:27 am

Wow an AMAZING job ima have to teach my guitar class this masterpiece greqt job man

I want to post or [tab]
guest
You may want to rate the tab now too:
select rating
Please do not post tabs as comments. Select "correction" instead!