Oops, an error
Loading. Please wait.
We have an official Big Rock Candy Mountain tab made by UG professional guitarists. Check out the tab »
×
155,597 views 165 this week
4 commentsread comments
1 2 3 4 5
x 17
add to favorites
×
Save as Personal and add changes to this tab that will be seen only by you. Learn more ›
×
You can save this tab as Personal to edit and correct it or add notes. All changes will be seen only by you. Learn more »
launch autoscroll
font size
0
reset
how to read this tab
guitar tuner
edit
Autoscroll
slow
fast
+/-
esc
set tempo
stop
Author
Unregistered
Big Rock Candy Mountain
                                    Harry McLintock

             C
e|-----------0---------------0---------------0--------------|
B|-----------1---------------1---------------1--------------|
G|-----------0---------------0---------------0--------------|
D|-----------------------------------------------0-------0--|
A|-------3-------0-------3-------0-------3-----------3------|
E|---3---------------3---------------3----------------------|

e|----------------------------------------------------------|
B|----------------------------------------------------------|
G|----------------------------------------------------------|
D|-----------------------------------------------0---0------|
A|-------3---3---0-------3---3---0-------3---3--------------|
E|---3---------------3---------------3----------------------|
                        Blend line 3 with line 2

e|-----------0-------0-------0-------0--------0-------0-------0---|
B|-----------1-------1-------1-------1--------1-------1-------1---|
G|-----------0-------0-------0-------0--------0-------0-------0---|
D|---2------------------------------------------------------------|
A|-------3-------3---------------3----------------3---------------|
E|-----------------------3----------------3---------------3-------|

e|---------------------------------------------------------------------|
B|---------------------------------------------------------------------|
G|-------0-------------------------------------------------------------|
D|---2-----------------------------------------------------------0---0-|
A|-------------------3---3---3---0-------3---3-----------3---3---------|
E|-----------3---3-------------------3-----------3---3-----------------|
                        Blend line 5 with line 4

e|-------0-------0-------0-------0-------0-------0-------0-------0---|
B|-------1-------1-------1-------1-------1-------1-------1-------1---|
G|-------0-------0-------0-------0-------0-------0-------0-------0---|
D|-------------------------------------------------------------------|
A|---3---------------3---------------3---------------3---------------|
E|-----------3---------------3---------------3---------------3-------|

e|-----------------------------------------------------------------------|
B|-----------------------------------------------------------------------|
G|-------0---0---2---2---2---2---0---0---2---2---0---0---2---0-----------|
D|---2-----------------------------------------------------------3---2---|
A|-----------------------------------------------------------------------|
E|-----------------------------------------------------------------------|
                        Blend line 7 with line 6

                        F       C       F       C       F       C
e|-------0-------0-------1-------0-------1-------0-------1-------0---|
B|-------1-------1-------1-------1-------1-------1-------1-------1---|
G|-------0-------0-------2-------0-------2-------0-------2-------0---|
D|-------------------3---------------3---------------3---------------|
A|---3-----------------------3---------------3---------------3-------|
E|-----------3-------------------------------------------------------|

e|---------------------------------------------------------------|
B|---------------------------------------------------------------|
G|---------------------------------------------------------------|
D|---0---------------------------------------------------0---0---|
A|---------------3---3---0-------3---3---0-------3---3-----------|
E|-------3---3---------------3---------------3-------------------|
                        Blend line 9 with line 8

       G                C                                       G
e|-------3-------3-------0-------0-------0-------0-------0-------3---|
B|-------0-------0-------1-------1-------1-------1-------1-------0---|
G|-------0-------0-------0-------0-------0-------0-------0-------0---|
D|-----------0-------------------------------------------------------|
A|-------------------3---------------3---------------3---------------|
E|---3-----------------------3---------------3---------------3-------|


e|------------------|------------------------------------------------|
B|------------------|----------------------------------------1---1---|
G|------------------|.---------------------0---0---0--2---2----------|
D|---2-------2---0--|.-------------0---2-----------------------------|
A|-------3----------|-3---3---3--------------------------------------|
E|------------------|------------------------------------------------|
                        Blend Line 11 with line 10

         C                                               F
e|-------0-------0--|--------0-------0-------0-------0-------1-------1---|
B|-------1-------1--|--------1-------1-------1-------1-------1-------1---|
G|-------0-------0--|.-------0-------0-------0-------0-------2-------2---|
D|------------------|.-----------------------------------3---------------|
A|---3--------------|----3---------------3-----------------------3-------|
E|-----------3------|------------3---------------3-----------------------|


e|---------------------------------------------------------------|
B|-----------------------1---1-----------------------------------|
G|---0---0---0---2---2-----------0---0---0---0---2---0-----------|
D|-------------------------------------------------------3---2---|
A|---------------------------------------------------------------|
E|---------------------------------------------------------------|
                        Blend line 13 with line 12

         C               F               C
e|-------0-------0-------1-------1-------0-------0-------0-------0---|
B|-------1-------1-------1-------1-------1-------1-------1-------1---|
G|-------0-------0-------2-------2-------0-------0-------0-------0---|
D|-------------------3-----------------------------------------------|
A|---3-----------------------3-------3---------------3---------------|
E|-----------3-------------------------------3---------------3-------|


e|--------------------------------------------------------------|
B|------------------------------------------------------1---1---|
G|----------------------------------0---0---0---2---2-----------|
D|---0---2---0--------------0---2-------------------------------|
A|---------------3---3---3--------------------------------------|
E|--------------------------------------------------------------|
                        Blend line 15 with line 14

         G               C                               F
e|-------3-------3-------0-------0-------0-------0-------1-------1---|
B|-------0-------0-------1-------1-------1-------1-------1-------1---|
G|-------0-------0-------0-------0-------0-------0-------2-------2---|
D|-----------0---------------------------------------3---------------|
A|-------------------3---------------3-----------------------3-------|
E|---3-----------------------3---------------3-----------------------|


e|----------------------------------------------------------------------------------|
B|----------------------------------------------------------------------------------|
G|---0---0---0---2---2---2---0---0---0---2---2---2---0---0---2---2---2--0-----------|
D|--------------------------------------------------------------------------2---2---|
A|----------------------------------------------------------------------------------|
E|----------------------------------------------------------------------------------|
                        Blend line17 with line 16

         C               F       C       F       C       F       C
e|-------0-------0-------1-------0-------1-------0-------1-------0---|
B|-------1-------1-------1-------1-------1-------1-------1-------1---|
G|-------0-------0-------2-------0-------2-------0-------2-------0---|
D|-------------------3---------------3---------------3---------------|
A|---3-----------------------3---------------3---------------3-------|
E|-----------3-------------------------------------------------------|

                                            __________________
                                            |1.
e|--------------------------------------------------------|
B|--------------------------------------------------------|
G|---2---2---0-----------0---0---0-----------------------.|
D|---------------2---2---------------2---0---------------.|
A|-------------------------------------------3---2---0----|
E|--------------------------------------------------------|
                        Blend line 19 with line 18

                                       ___________________
         F       C       G             |1. C
e|-------1-------0-------3-------3---------0-------0-------0-------0----|
B|-------1-------1-------0-------0---------1-------1-------1-------1----|
G|-------2-------0-------0-------0---------0-------0-------0-------0---.|
D|---3-----------------------0-----------------------------------------.|
A|-----------3-------------------------3---------------3----------------|
E|-------------------3-------------------------3---------------3--------|


      ______________
      |2.
e|---------------|
B|---------------|
G|---------------|
D|---0-----------|
A|-------3-------|
E|---------------|
        Blend line 21 with line 20

 _______________
 |2. C
e|-------0---0---|
B|-------1---1---|
G|-------0---0---|
D|---------------|
A|---3-----------|
E|---------------|

            
            
Suggest correction
Creating personal tab
Creating personal tab
You can edit any tab online and save it as your Personal.

You can edit, replace or remove any tab part or add personal notes – all changes will be seen only by you.

Personal tabs can be accessed anytime from any device, even offline.
Learn more »
comments
print report bad tab
4 comments total. Showing first comments.
0 reply
Bee-Ay 1,433 Dec 03, 2005 08:42 AM

You're a crazy **** since you made this tab ;) - But still, great job mate :D

0 reply
Mistermark 346 Apr 18, 2006 11:04 AM

Brilliant!

0 reply
adamj2029 10 Nov 10, 2009 09:16 AM

could you put lyrics along with the lines, its kinda confusing

guest
Wanna post a correction for this tab? Suggest correction