Oops, an error
Loading. Please wait.

Everybodys Talkin bass

version 1
version 1

Whole song

Interactive

367 views 1 this week
3 commentsread comments
1 2 3 4 5
2 more votes to show rating
add to favorites
×
Save as Personal and add changes to this tab that will be seen only by you. Learn more ›
×
You can save this tab as Personal to edit and correct it or add notes. All changes will be seen only by you. Learn more »
launch autoscroll
font size
0
reset
guitar tuner
edit
Autoscroll
slow
fast
+/-
esc
set tempo
stop
Author
Difficulty
G|----------------------------------------------------------------|
D|----------------------------------------------------------------| x2
A|7-------------------------------7-------------------------------|
E|------------7---------------7---------------7---------------7---|


0:08

G|----------------------------------------------------------------|
D|----------------------------------------------------------------|
A|7-------------------------------7-------------------------------|
E|------------7---------------7---------------7---------------7---|

G|----------------------------------------------------------------|
D|----------------------------------------------------------------|
A|7-------------------------------7-------------------7-------8---|
E|------------7---------------7---------------7-------------------|

G|----------------------------------------------------------------|
D|----------------------------------------------------------------|
A|9-------------------------------9-------------------------------|
E|------------7---------------7---------------7---------------7---|

G|----------------------------------------------------------------|
D|----------------------------------------------------------------|
A|7-------------------------------7-------------------------------|
E|------------7---------------7---------------7---------------7---|


0:23

G|----------------------------------------------------------------|
D|----------------------------------------------------------------|
A|7-------------------------------7-------------------------------|
E|------------7---------------7---------------7---------------7---|

G|----------------------------------------------------------------|
D|----------------------------------------------------------------|
A|7-------------------------------7-------------------7-------8---|
E|------------7---------------7---------------7-------------------|

G|----------------------------------------------------------------|
D|----------------------------------------------------------------|
A|9-------------------------------9-------------------------------|
E|------------7---------------7---------------7---------------7---|

G|----------------------------------------------------------------|
D|----------------------------------------------------------------|
A|7-------------------------------7-------------------7-------8---|
E|------------7---------------7---------------7-------------------|


0:39

G|----------------------------------------------------------------|
D|----------------------------------------------------------------|
A|9-----------9---9-----------------------------------------------|
E|----------------------------9---7-----------7---7-----------9---|

G|----------------------------------------------------------------|
D|----------------9---------------------------9-------------------|
A|7-----------7-------------------7-------------------7-------8---|
E|----------------------------7-----------------------------------|

G|----------------------------------------------------------------|
D|----------------------------------------------------------------|
A|9-----------9---9-----------------------------------------------|
E|----------------------------9---7-----------7---7-----------9---|

G|----------------------------------------------------------------|
D|----------------------------------------------------------------|
A|7-------------------------------7-----------7-------6---7---8---|
E|------------7-------7-------7-----------------------------------|


0:54

G|----------------------------------------------------------------|
D|----------------------------------------------------------------|
A|9-----------9---9-----------------------------------------------|
E|----------------------------9---7-----------7---7-----------9---|

G|----------------------------------------------------------------|
D|------------9-------------------------------9-------------------|
A|7-------------------------------7-----------------------7---8---|
E|------------------------7---------------------------7-----------|

G|----------------------------------------------------------------|
D|----------------------------------------------------------------|
A|9-----------9---9-----------------------------------------------|
E|----------------------------9---7-----------7---7-------9-------|

G|----------------------------------------------------------------|
D|----------------------------------------------------------------|
A|7-----------7-------------------7-------------------------------|
E|----------------7-----------7---------------7-------7-------9---|


1:10

G|----------------------------------------------------------------|
D|----------------------------------------------------------------|
A|7-------------------------------7-------------------------------|
E|------------7---------------7---------------7---------------7---|

G|----------------------------------------------------------------|
D|----------------------------------------------------------------|
A|7-------------------------------7-------------------7-------8---|
E|------------7---------------7---------------7-------------------|

G|----------------------------------------------------------------|
D|----------------------------------------------------------------|
A|9-------------------------------9-------------------------------|
E|------------7---------------7---------------7---------------7---|

G|----------------------------------------------------------------|
D|----------------------------------------------------------------|
A|7-------------------------------7-------------------7-------8---|
E|------------7---------------7---------------7-------------------|


1:26

G|----------------------------------------------------------------|
D|----------------------------------------------------------------|
A|9-----------9---9-----------------------------------------------|
E|----------------------------9---7-----------7---7-------9-------|

G|----------------------------------------------------------------|
D|----------------------------------------------------------------|
A|7-----------7-------------------7-------------------7-------8---|
E|----------------7-----------7---------------7-------------------|

G|----------------------------------------------------------------|
D|----------------------------------------------------------------|
A|9-----------9---9-----------------------------------------------|
E|----------------------------9---7-----------7-------7-------9---|

G|----------------------------------------------------------------|
D|----------------------------------------------------------------|
A|7-----------7-------------------7-----------7-----------7---8---|
E|----------------7-----------7-----------------------7-----------|


1:40

G|----------------------------------------------------------------|
D|----------------------------------------------------------------|
A|9-----------9---9-----------------------------------------------|
E|----------------------------9---7-----------7-------7-------9---|

G|----------------------------------------------------------------|
D|----------------------------------------------------------------|
A|7-----------7-------------------7-----------7-----------7---8---|
E|----------------7-----------7-----------------------7-----------|

G|----------------------------------------------------------------|
D|----------------------------------------------------------------|
A|9-----------9---9-----------------------------------------------|
E|----------------------------9---7-----------7-------7-------9---|

G|----------------------------------------------------------------|
D|----------------------------------------------------------------|
A|7-----------7-------------------7-------------------------------|
E|----------------7-----------7---------------7-------7-------9---|


1:56

G|----------------------------------------------------------------|
D|----------------------------------------------------------------|
A|7-------------------------------7-------------------------------|
E|------------7---------------7---------------7---------------7---|

G|----------------------------------------------------------------|
D|----------------------------------------------------------------|
A|7-------------------------------7-------------------7-------8---|
E|------------7---------------7---------------7-------------------|

G|----------------------------------------------------------------|
D|----------------------------------------------------------------|
A|9-------------------------------9-------------------------------|
E|------------7---------------7---------------7---------------9---|

G|----------------------------------------------------------------|
D|----------------------------------------------------------------|
A|7-------------------------------7-------------------7-------8---|
E|------------7---------------7---------------7-------------------|


2:12

G|----------------------------------------------------------------|
D|----------------------------------------------------------------|
A|9-------------------------------9-------------------------------|
E|------------7---------------7---------------7---------------7---|

G|----------------------------------------------------------------|
D|----------------------------------------------------------------|
A|7-------------------------------7-------------------7-------8---|
E|------------7---------------7---------------7-------------------|

G|----------------------------------------------------------------|
D|----------------------------------------------------------------|
A|9-------------------------------9-------------------------------|
E|------------7---------------7---------------7---------------7---|

G|----------------------------------------------------------------|
D|----------------------------------------------------------------|
A|7-------------------------------7---------------------------7---|
E|------------7---------------7---------------7-------4-----------|


2:27

G|----------------------------------------------------------------|
D|----------------------------------------------------------------|
A|9-------------------------------9-------------------------------|
E|------------7---------------7---------------7---------------9---|

G|----------------------------------------------------------------|
D|----------------------------------------------------------------|
A|7-------------------------------7-------------------7-------8---|
E|------------7---------------7---------------7-------------------|

G|----------------------------------------------------------------|
D|----------------------------------------------------------------|
A|9-------------------------------9-------------------------------|
E|------------7---------------7---------------7---------------9---|

G|---------------------------------------------------------|
D|------------9--------------------------------------------| fades out here.
A|7-------------------------------7------------------------|
E|----------------------------7---------------7-------4----|

            
            
Suggest correction
Creating personal tab
Creating personal tab
You can edit any tab online and save it as your Personal.

You can edit, replace or remove any tab part or add personal notes – all changes will be seen only by you.

Personal tabs can be accessed anytime from any device, even offline.
Learn more »
Give kudos to tab author, rate the tab!
1 2 3 4 5
comments
print report bad tab
3 comments total.
+1 reply
ayreon77 21,833 Jun 19, 2017 08:56 PM

Nicely Done.

guest
You may want to rate the tab now too:
select rating
Wanna post a correction for this tab? Suggest correction