Oops, an error
Loading. Please wait.

Everybodys Talkin Tab

version 1
version 1

Whole song

Interactive

64,359 views 81 this week
no commentswrite comment
1 2 3 4 5
x 6
add to favorites
launch autoscroll
font size
0
reset
how to read this tab
guitar tuner
×
Best way to learn
"Everybodys Talkin"
Autoscroll
slow
fast
+/-
esc
set tempo
stop
Capo
4th fret
Play this twice..                                                            |
E|-------------------------------------|---------------0---------------------|
B|----1----------1-----0--------0------|----1-------------1--0-------0-------|
G|----------0---------------0----------|----------0--------------0-----------|
D|-------2---------2------2-------2----|-------2---------------2-------------|
A|----3--------3-----------------------|----3--------3-----------------2-----|
E|---------------------3------3--------|---------------------3-----3---------|


 then ...
E|-------------------------------------|-------------------------------------|
B|---1------------1-----0---------0----|--1------------1------0-----------0--|
G|----------0-----------------0------2-|--------0--------------------0-------|
D|-------2-----------2-----2-----------|-----2------------2------2---------2-|
A|---3---------3-----------------------|--3--------3-------------------------|
E|----------------------3-------3------|----------------------3---------3----|
                  Everybody's             talking   at        me
                  I  see them             stop      and       stare


E|-------------------------------------|--0----------------------------------|
B|----------------------1--------------|--------1-----------------------1----|
G|----0--2--3-----3--------------------|-------------0------3-----3----------|
D|-2-----------2-----------2-----------|-----2----------2------2-----------2-|
A|----------3--------------------------|--3-----------------3----------------|
E|-------------------3-----------------|----------3------------------3-------|
                                         Can't  hear  the words    they're
                                         I can't  see       their


E|-0-------------------------1---------|----------1---------------1----------|
B|-------1-----------3----------3------|---2---------2------1--------1-------|
G|-----------0-----------2---------2---|------2---------2------2--------2----|
D|----2---------2----0-----------------|--------------------0----------------|
A|-3-----------------------------------|---0---------------------------------|
E|---------3---------------------------|-------------------------------------|
   saying                                  they're    only  echoes
   faces                                   only       the  shadows


E|-----------------------------0-------|-------------------------------------|
B|---0---------0------1-----------1----|--0-------0--------------1-----------|
G|---------0----------------0----------|-------0-------3-----3---------------|
D|------0---------0------2-------------|-----2------------2---------2--------|
A|--------------------3----------------|---------------3---------------------|
E|---3-------3-------------------------|--3--------------------3-------------|
     of      my       mind
     of      my       mind


E|--0-----------------------1----------|---------1-----------------1---------|
B|--------1---------3----------3-------|--2---------2-------1---------1------|
G|-----------0----------2---------2----|-----2----------2-------2--------2---|
D|-----2--------2---0------------------|--------------------0----------------|
A|--3----------------------------------|--0----------------------------------|
E|-------------------------------------|-------------------------------------|


E|------------------------------0------|-------------------------------------|
B|--0-----------0------1-----------1---|-0----------0-----1----------1-------|
G|--------0------------------0---------|------0-----------------0------------|
D|-----0-----------0------2------------|---2-----------2-----2----------2----|
A|---------------------3---------------|------------------3--------3---------|
E|--3-------3--------------------------|-3-------3---------------------------|
                                                                                        etc....
  (the same sequences repeat with the rest of the lyrics which you can find
  on the page with the MP3 whose link is here above)
Suggest correction
comments
print report bad tab
guest
You may want to rate the tab now too:
select rating
Wanna post a correction for this tab? Suggest correction