Oops, an error
Loading. Please wait.

Everybodys Talkin Tab

version 2
version 2

Whole song

Interactive

63,393 views 99 this week
11 commentsread comments
1 2 3 4 5
x 16
add to favorites
×
Save as Personal and add changes to this tab that will be seen only by you. Learn more ›
×
You can save this tab as Personal to edit and correct it or add notes. All changes will be seen only by you. Learn more »
save as personal
new!
launch autoscroll
font size
0
reset
how to read this tab
guitar tuner
Autoscroll
slow
fast
+/-
esc
set tempo
stop
Author
Capo
4th fret
EVERYBODY'S TALKING  FRED NEIL - HARRY NILSSON
          (From the soundtrack of the film MIDNIGHT COWBOY)

  You can download a simple sound illustration MP3 recorded by myself here
 http://jptrol.free.fr/mus

 Must be played in FAST PICKING

 CAPO on 4th fret
 

      E                                      Emaj7
E|----------0--------------------------|------------0------------------------|
B|--1-----------1----------------------|----0----------0---------------------|
G|----------------4--------------------|------------------0------------------|
D|------2------------------------------|--------2----------------------------|
A|--3----------------------------------|-------------------------------------| x2
E|-------------------------------------|----3--------------------------------|


then..
      E                                      Emaj7
E|----------0--------------------------|------------0------------------------|
B|--1-----------1----------------------|----0----------0---------------------|
G|----------------4--------------------|------------------0------------------|
D|------2------------------------------|--------2----------------------------|
A|--3----------------------------------|-------------------------------------|
E|-------------------------------------|----3--------------------------------|
                  Every_                      body's
     talkin'  at                              me


      E7                                     C#m
E|----------1--------------------------|------------0------------------------|
B|--------------1----------------------|---------------1---------------------|
G|---3------------2--------------------|----2------------2-------------------|
D|-------2-----------------------------|--------2----------------------------|
A|---3---------------------------------|----0--------------------------------|
E|-------------------------------------|-------------------------------------|
                  Can't                       hear the
     words they're                            saying


      A                                      B7
E|----------1--------------------------|----1---------1----------------------|
B|--1-----------1----------------------|-------0--------0--------------------|
G|----------------2--------------------|----------0--------------------------|
D|------3------------------------------|-------------------------------------|
A|-------------------------------------|-------------------------------------|
E|--1----------------------------------|----3--------------------------------|
                 They're                      only
      echoes                                     of my

      C#m                                    E
E|-----------0-------------------------|-----------0-------------------------|
B|---------------1---------------------|--------------1----------------------|
G|--2--------------2-------------------|---0------------0--------------------|
D|-------2-----------------------------|-------2-----------------------------|
A|--0----------------------------------|-------------------------------------|
E|-------------------------------------|---3---------------------------------|
      mind

 
      F#m                                   C#5
E|-----------1-------------------------|-----------1-------------------------|
B|---3----------3----------------------|---2----------2----------------------|
G|------2---------2--------------------|------2---------2--------------------|
D|---0---------------------------------|-------------------------------------|
A|-------------------------------------|---0---------------------------------|
E|-------------------------------------|-------------------------------------|
                      I'm                    going where the


      F#m7                                  B7
E|-----------1-------------------------|-----------1-------------------------|
B|---1----------1----------------------|---0----------0----------------------|
G|--------2--------2-------------------|-----------------0-------------------|
D|---0---------------------------------|-------0-----------------------------|
A|-------------------------------------|-------------------------------------|
E|-------------------------------------|---3---------------------------------|
       sun  keeps                            shining


      E                                     Emaj7
E|-----------0-------------------------|-----------0-------------------------|
B|--1------------1---------------------|---0---------0-----------------------|
G|-----------------0-------------------|---------------0---------------------|
D|------2------------------------------|------2------------------------------|
A|--3----------------------------------|-------------------------------------|
E|-------------------------------------|---3---------------------------------|
                   through   the             pouring


      E7                                                     return 3 times to ***
E|----------0--------------------------|-------------------------------------|
B|---------------1---------------------|-------------------------------------|
G|--3--------------3-------------------|-------------------------------------|
D|-----2-------------------------------|-----------0---2---------------------|
A|--3----------------------------------|---3---3-----------------------------|
E|-------------------------------------|-------------------------------------|
      rain

then several times ...

      E                                      Emaj7
E|----------0--------------------------|------------0------------------------|
B|--1-----------1----------------------|----0----------0---------------------|
G|----------------4--------------------|------------------0------------------|
D|------2------------------------------|--------2----------------------------|
A|--3----------------------------------|-------------------------------------|
E|-------------------------------------|----3--------------------------------|
Suggest correction
comments
print report bad tab
11 comments total. Showing first comments.
0 reply
TomSk 327 Jun 07, 2004 08:00 PM

mp3, nice touch...

0 reply
banjo bob 10 Dec 26, 2006 06:56 AM

i love this song. thanks

0 reply
slug 92 Jan 03, 2007 04:33 PM

Now it's pretty correct, well done.

guest
You may want to rate the tab now too:
select rating
Wanna post a correction for this tab? Suggest correction