Oops, an error
Loading. Please wait.

From The Dining Table intro tab

version 1
version 1

Intro

  • This is basically just a simplified version of the original.

Whole song

  • Includes main guitar and strings arranged for guitar.
1,441 views 129 this week
2 commentsread comments
1 2 3 4 5
x 8
add to favorites
×
Save as Personal and add changes to this tab that will be seen only by you. Learn more ›
×
You can save this tab as Personal to edit and correct it or add notes. All changes will be seen only by you. Learn more »
launch autoscroll
font size
0
reset
how to read this tab
guitar tuner
edit
Autoscroll
slow
fast
+/-
esc
set tempo
stop
About this tab version
This is basically just a simplified version of the original. Was this info helpful? Yes No
I learned this by ear so it's not 100% perfect... Hope it helps, though!

Woke up alone...
e|-----------------------------------------|
B|-----------------------------------------|
G|-----------------------------------------|
D|--4--2--0--2--0------------4-------------|
A|------------------0--2--5----------------|
E|-----------------------------------------|

Played with myself...
e|-----------------------------------------|
B|-----------------------------------------|
G|-----------------------------------------|
D|--4--2--0--2--0--0-----------------------|
A|-----------------------------------------|
E|-----------------------------------------|

Comfortable silence...
e|-----------------------------------------|
B|-----------------------------------------|
G|--------2--5--5--5--5--4--2--------------|
D|--4--5-----------------------4--2--2p----|
A|-----------------------------------------|
E|-----------------------------------------|

Even my phone...
e|-----------------------------------------|
B|-----------------------------------------|
G|--------2--------------------------------|
D|--4--5-----2--4--4--4--2p----------------|
A|-------------------------------2--5--5---|
E|-----------------------------------------|

************************************

| p  Pull-off

************************************

            
            
Suggest correction
Creating personal tab
Creating personal tab
You can edit any tab online and save it as your Personal.

You can edit, replace or remove any tab part or add personal notes – all changes will be seen only by you.

Personal tabs can be accessed anytime from any device, even offline.
Learn more »
comments
print report bad tab
2 comments total.
0 reply
ivaputica 10 Aug 07, 2017 06:19 AM

Cool tab ,thanx;) It just needs that "maybe one day you'll call me and tell me that you're sorry too" part!😉

guest
You may want to rate the tab now too:
select rating
Wanna post a correction for this tab? Suggest correction