Oops, an error
Loading. Please wait.

Sign Of The Times chords

version 2
version 2

Whole song

  • This is a simple yet concise overview of the song ... Show more
  • Includes chords, fingerings and lead parts.
  • Key: C. Whole song, no capo. Additional chords. Easily transposed if desirable.
  • After working out the chords I've put it into the ... Show more
  • This is the shortened version.

Video

  • High quality video with on screen tab, easy to follow.
68,953 views 1,338 this week
1 commentread comment
1 2 3 4 5
x 20
add to favorites
×
Save as Personal and add changes to this tab that will be seen only by you. Learn more ›
×
You can save this tab as Personal to edit and correct it or add notes. All changes will be seen only by you. Learn more »
launch autoscroll
font size
0
reset
transpose
0
reset
simplify chords
display chords
guitar tuner
edit
Autoscroll
slow
fast
+/-
esc
set tempo
stop
Author
Difficulty
About this tab version
Includes chords, fingerings and lead parts. Was this info helpful? Yes No
Strumming Is this strumming pattern correct? Yes No
The whole song 60 bpm
1
&
2
&
3
&
4
&
Listen
Artist: Harry Styles
"Sign of the Times"

Standard tuning.

  F     Dm         C          C7     Bb
e|1----------1-----0----0-----0------1-----|
B|1-----3----3-----5----1-----1------3-----|
G|2-----2-or-2-----5-or-0-----3------3-----|
D|3-----3----0-----5---(2)----2------3-----|
A|3-----5----------3----3-----3------1-----|
E|1----------------------------------------|


[Intro]

F Dm C

[Verse]
F 
 Just stop your crying
                   Dm
It’s a sign of the times
               C
Welcome to the final show

Hope you’re wearing your best clothes
F
 You can't bribe the door
                   Dm
On your way to the sky
                C
You look pretty good down here

But you ain't really good

[Pre-Chorus]
F
If we never learn we been here before
Dm       
Why ae we always stuck and running from 
       C
The bullets?

The bullets
F
If we never learn we been here before
Dm       
Why are we always stuck and running from
       C
The bullets?

The bullets

[Chorus]
  F               Dm          C                  C7                  F
e|1///13~----15\\\10~---/15\\\8~-----------------------------------------|
B|1///13~----------------------------------------------------------------|
G|2///14~--------------------------7b9r7b9r7-5-3-------7b9r7b9r7-5-------|
D|-----------------------------------------------5~----------------7-----|
A|-------------------------------------------------------------------8~--|
E|-----------------------------------------------------------------------|

F 
Just stop your crying
                   Dm
It’s a sign of the times
             C
We gotta get away from here
             C7
We gotta get away from here
F 
Just stop your crying
            Dm
It’ll be alright
                      C
They told me that the end is near
             C7
We gotta get away from here

[Verse]
F 
 Just stop your crying
                      Dm
Have the time of your life
                     C
Breaking through the atmosphere

And things look pretty good from here
F                             Dm
Remember everything will be alright
             C
We can meet again somewhere

Somewhere far away from here

[Pre-Chorus]
F
If we never learn we been here before
Dm       
Why are we always stuck and running from
       C
The bullet?

The bullets
F
If we never learn we been here before
Dm       
Why are we always stuck and running from
       C
The bullet?

The bullets

[Chorus]
  F               Dm          C                  C7                  F
e|1///13~----15\\\10~---/15\\\8~-----------------------------------------|
B|1///13~----------------------------------------------------------------|
G|2///14~--------------------------7b9r7b9r7-5-3-------7b9r7b9r7-5-------|
D|-----------------------------------------------5~----------------7-----|
A|-------------------------------------------------------------------8~--|
E|-----------------------------------------------------------------------|

F 
Just stop your crying
                   Dm
It’s a sign of the times
             C
We gotta get away from here
             C7
We gotta get away from here
F 
Stop your crying
                 Dm
Baby, it’ll be alright
                      C
They told me that the end is near
             C7
We gotta get away from here

[Pre-Chorus]
F
If we never learn we been here before
Dm       
Why are we always stuck and running from
       C
The bullet?

The bullets
F
If we never learn we been here before
Dm       
Why are we always stuck and running from
       C
The bullet?

The bullets

[Bridge]
F
 We don't talk enough
Dm
  We should open up
C                        Bb
 Before it's all too much
F
 Will we ever learn?
Dm
 We've been here before
C                       Bb
 It's just what we know

[Outro]
F 
Stop your crying, baby
                   Dm
It’s a sign of the times
              C
We gotta get away
               Bb           
We got to get away 
               F
We got to get away
               Dm
We got to get away
               C
We got to get away
                      F
We got to, we got to away
                      Dm
We got to, we got to away
                      C
We got to! We got to away!
   F

 [End]
  F     let ring
e|13------------------------------------------------------------------------------|
B|13-13-15----13-15----13-15----13-15----13-15----13-15----13-15----13-15----13---|
G|14-------14-------14-------14-------14-------14-------14-------14-------14------|
D|15------------------------------------------------------------------------------|
A|--------------------------------------------------------------------------------|
E|13------------------------------------------------------------------------------|



***********************************
| /   Slide up
| \   Slide down
| ~   Vibrato
| b   Bend
| r   Bend release

***********************************

            
            
Suggest correction
Creating personal tab
Creating personal tab
You can edit any tab online and save it as your Personal.

You can edit, replace or remove any tab part or add personal notes – all changes will be seen only by you.

Personal tabs can be accessed anytime from any device, even offline.
Learn more »
comments
print report bad tab
1 comment total.
0 reply
MirandaRaney 10 Apr 11, 2017 07:31 PM

this song is AMAZING and i wanted to play it as soon as i heard it! this was very helpful! thanks!

guest
You may want to rate the tab now too:
select rating
Wanna post a correction for this tab? Suggest correction