Oops, an error
Loading. Please wait.

Sign Of The Times Acoustic tab

version 2
version 2

Whole song

  • Fully structured tab with song timings, easy to follow.
  • This Version Is For lead guitar, it is recommended... Show more

Video

  • High quality video with on screen tab, easy to follow.
1,954 views 75 this week
no commentswrite comment
1 2 3 4 5
x 4
add to favorites
×
Save as Personal and add changes to this tab that will be seen only by you. Learn more ›
×
You can save this tab as Personal to edit and correct it or add notes. All changes will be seen only by you. Learn more »
launch autoscroll
font size
0
reset
how to read this tab
guitar tuner
edit
Autoscroll
slow
fast
+/-
esc
set tempo
stop
Sign Of The Times - Harry Styles
no capo
video lesson: https://www.youtube.com/watch?v=08cKCk-4x4Q

===================================================
time stamps indicates where 
a specific part of the song is taught in the video 
==========================================================
if you see ( ) and x it means you have to use your middle 
finger to strum those strings then use your thumb
to slap the top strings of the guitar
==========================================================

[Intro] 3:36

     F          Dm         C
e|---------------------|-------------------|
B|--1-1-1-1---3-3-3-3--|-------------------|
G|--2-2-2-2---2-2-2-2--|--0-0-0-0-0-0-0-0--|
D|------------0-0-0-0--|--2-2-2-2-2-2-2-2--|
A|---------------------|--3-3-3-3-3-3-3-3--|
E|--1-1-1-1------------|-------------------|

[Verse 1] 5:55 

     F                                Dm
e|-----1--1--1-1--|-----1-1--1--1--3--|--0----------------|-----0-----0-----|
B|----------------|-------------------|--------3----------|--3-----3-----3--|
G|----------------|-------------------|-------------------|-----------------|
D|----------------|-------------------|-----0-----0--0----|-----0-----------|
A|----------------|-------------------|-------------------|-----------------|
E|--1-----1-------|--1-------1--------|-------------------|-----------------|     
   C
e|--0-------------|-----0-----0-----|--0----------------|
B|-----3p1--1-----|--3-----3-----3--|-----3p1--1--------|
G|----------------|-----------------|-------------------|
D|----------------|-----------------|-------------------|
A|--3-------3--3--|-----3-----------|--3-------3--3--3--|
E|----------------|-----------------|-------------------|
         F                                Dm
e|-----1--1--3--1--|-----1-1--1--1--3--|--0----------------|-----0-----0-----|
B|-----------------|-------------------|--------3----------|--3-----3-----3--|
G|-----------------|-------------------|-------------------|-----------------|
D|-----------------|-------------------|-----0-----0--0----|-----0-----------|
A|-----------------|-------------------|-------------------|-----------------|
E|--1-----1--------|--1-------1--------|-------------------|-----------------|
   C
e|--0-------------|-----0-----0-----|--0----------------|
B|-----3p1--1-----|--3-----3-----3--|-----3p1--1--------|
G|----------------|-----------------|-------------------|
D|----------------|-----------------|-------------------|
A|--3-------3--3--|-----3-----------|--3-------3--3--3--|
E|----------------|-----------------|-------------------|

[Pre-Chorus] 15:00

     F
e|---------------------------------------|
B|-----1-----1---------------------------|
G|--------2-----2p0--0--------0--2----0--|
D|----------------------3--3-------------|
A|---------------------------------------|
E|--1-----------1-------------1-----1----|
     Dm
e|----------------------------------|-----------|
B|-----1-----1----------------------|-----1-----|
G|--------2-----2p0--0--------0--2--|--------2--|
D|--0-----------0-------3--3--------|--3--------|
A|----------------------------------|-----------|
E|----------------------------------|-----------|
    C
e|----------------------------|
B|------------1---------------|
G|--0------------2--0---------|
D|----------------------------|
A|--3--3-3-3--------3--3-3-3--|
E|----------------------------|
     F
e|---------------------------------------|
B|-----1-----1---------------------------|
G|--------2-----2p0--0--------0--2----0--|
D|----------------------3--3-------------|
A|---------------------------------------|
E|--1-----------1-------------1-----1----|
     Dm
e|----------------------------------|-----------|
B|-----1-----1----------------------|-----1-----|
G|--------2-----2p0--0--------0--2--|--------2--|
D|--0-----------0-------3--3--------|--3--------|
A|----------------------------------|-----------|
E|----------------------------------|-----------|
    C
e|--------------------------|
B|------------1-------------|
G|--0------------2--0-------|
D|--------------------------|
A|--3--3-3-3--------3--3-3--|
E|--------------------------|

[Chorus] 23:18

   F                                             Dm
e|-----1--(1)--3--1-----|--1-1--(1)--1--3--|--0----------------------|--(0)-----0-----|
B|-----1---1------------|--------1---------|--------3--(3)-----3-----|---3---3-----3--|
G|----------------------|------------------|------------2---------2--|----------------|
D|----------------------|------------------|-----0----------0--------|----------------|
A|---------x------------|--------x---------|------------x------------|---x------------|
E|--1------x---------1--|--------x---------|------------x------------|---x------------|
     C
e|--0---------------------|--(0)-----0-----0------------|----------------|
B|-----3p1--(1)-----1-----|-------3-----3----------(1)--|-----1-----(1)--|
G|-----------0---------0--|-------------------3p1-------|--------0-------|
D|------------------------|-----------------------------|----------------|
A|--3--------x---3--------|---x------------3--------x---|--3---------x---|
E|-----------x------------|---x---------------------x---|------------x---|
   F                                             Dm
e|-----1--(1)--3--1-----|--1-1--(1)--1--3--|--0----------------------|--(0)-----0-----|
B|-----1---1------------|--------1---------|--------3--(3)-----3-----|---3---3-----3--|
G|----------------------|------------------|------------2---------2--|----------------|
D|----------------------|------------------|-----0----------0--------|----------------|
A|---------x------------|--------x---------|------------x------------|---x------------|
E|--1------x---------1--|--------x---------|------------x------------|---x------------|
     C
e|--0---------------------|--(0)-----0-----0------------|----------------|
B|-----3p1--(1)-----1-----|-------3-----3----------(1)--|-----1-----(1)--|
G|-----------0---------0--|-------------------3p1-------|--------0-------|
D|------------------------|-----------------------------|----------------|
A|--3--------x---3--------|---x------------3--------x---|--3---------x---|
E|-----------x------------|---x---------------------x---|------------x---|

[Verse 2] 

   F                                             Dm
e|-----1--(1)--3--1-----|--1-1--(1)--1--3--|--0----------------------|--(0)-----0-----|
B|-----1---1------------|--------1---------|--------3--(3)-----3-----|---3---3-----3--|
G|----------------------|------------------|------------2---------2--|----------------|
D|----------------------|------------------|-----0----------0--------|----------------|
A|---------x------------|--------x---------|------------x------------|---x------------|
E|--1------x---------1--|--------x---------|------------x------------|---x------------|
     C
e|--0---------------------|--(0)-----0-----0------------|----------------|
B|-----3p1--(1)-----1-----|-------3-----3----------(1)--|-----1-----(1)--|
G|-----------0---------0--|-------------------3p1-------|--------0-------|
D|------------------------|-----------------------------|----------------|
A|--3--------x---3--------|---x------------3--------x---|--3---------x---|
E|-----------x------------|---x---------------------x---|------------x---|
   F                                             Dm
e|-----1--(1)--3--1-----|--1-1--(1)--1--3--|--0----------------------|--(0)-----0-----|
B|-----1---1------------|--------1---------|--------3--(3)-----3-----|---3---3-----3--|
G|----------------------|------------------|------------2---------2--|----------------|
D|----------------------|------------------|-----0----------0--------|----------------|
A|---------x------------|--------x---------|------------x------------|---x------------|
E|--1------x---------1--|--------x---------|------------x------------|---x------------|
     C
e|--0---------------------|--(0)-----0-----0------------|----------------|
B|-----3p1--(1)-----1-----|-------3-----3----------(1)--|-----1-----(1)--|
G|-----------0---------0--|-------------------3p1-------|--------0-------|
D|------------------------|-----------------------------|----------------|
A|--3--------x---3--------|---x------------3--------x---|--3---------x---|
E|-----------x------------|---x---------------------x---|------------x---|

[Pre-Chorus] 32:58 

    F                                             Dm
e|---------------------------|----------------|---------------------------|----------------------|
B|-----1-----1---------------|----------------|-----1-----1---------------|----------------1-----|
G|--------2-----(2p0)--0-----|-----0--2--(2)--|--------2-----(2p0)--0-----|-----0--2--(2)-----2--|
D|------------------------3--|--3-------------|--0---------------------3--|--3-------------------|
A|----------------x----------|------------x---|----------------x----------|------------x---------|
E|--1-------------x----------|------------x---|----------------x----------|------------x---------|
     C
e|------0-------------0------------|---0-------------0---|
B|-----(1)-----1-----(1)--1--------|--(1)-----1-----(1)--|
G|--0---0---------0---0------2--0--|---0---------0---0---|
D|---------------------------------|---------------------|
A|--3---x---3---------x---------3--|---x---3---------x---|
E|------x-------------x------------|---x-------------x---|
    F                                             Dm
e|---------------------------|----------------|---------------------------|----------------------|
B|-----1-----1---------------|----------------|-----1-----1---------------|----------------1-----|
G|--------2-----(2p0)--0-----|-----0--2--(2)--|--------2-----(2p0)--0-----|-----0--2--(2)-----2--|
D|------------------------3--|--3-------------|--0---------------------3--|--3-------------------|
A|----------------x----------|------------x---|----------------x----------|------------x---------|
E|--1-------------x----------|------------x---|----------------x----------|------------x---------|
     C
e|------0-------------0------------|---0-------------0---|
B|-----(1)-----1-----(1)--1--------|--(1)-----1-----(1)--|
G|--0---0---------0---0------2--0--|---0---------0---0---|
D|---------------------------------|---------------------|
A|--3---x---3---------x---------3--|---x---3---------x---|
E|------x-------------x------------|---x-------------x---|

[Chorus] 

   F                                             Dm
e|-----1--(1)--3--1-----|--1-1--(1)--1--3--|--0----------------------|--(0)-----0-----|
B|-----1---1------------|--------1---------|--------3--(3)-----3-----|---3---3-----3--|
G|----------------------|------------------|------------2---------2--|----------------|
D|----------------------|------------------|-----0----------0--------|----------------|
A|---------x------------|--------x---------|------------x------------|---x------------|
E|--1------x---------1--|--------x---------|------------x------------|---x------------|
     C
e|--0---------------------|--(0)-----0-----0------------|----------------|
B|-----3p1--(1)-----1-----|-------3-----3----------(1)--|-----1-----(1)--|
G|-----------0---------0--|-------------------3p1-------|--------0-------|
D|------------------------|-----------------------------|----------------|
A|--3--------x---3--------|---x------------3--------x---|--3---------x---|
E|-----------x------------|---x---------------------x---|------------x---|

   F                                             Dm
e|-----1--(1)--3--1-----|--1-1--(1)--1--3--|--0----------------------|--(0)-----0-----|
B|-----1---1------------|--------1---------|--------3--(3)-----3-----|---3---3-----3--|
G|----------------------|------------------|------------2---------2--|----------------|
D|----------------------|------------------|-----0----------0--------|----------------|
A|---------x------------|--------x---------|------------x------------|---x------------|
E|--1------x---------1--|--------x---------|------------x------------|---x------------|
     C
e|--0---------------------|--(0)-----0-----0------------|----------------|
B|-----3p1--(1)-----1-----|-------3-----3----------(1)--|-----1-----(1)--|
G|-----------0---------0--|-------------------3p1-------|--------0-------|
D|------------------------|-----------------------------|----------------|
A|--3--------x---3--------|---x------------3--------x---|--3---------x---|
E|-----------x------------|---x---------------------x---|------------x---|

[Pre-Chorus] 32:58 

    F                                             Dm
e|---------------------------|----------------|---------------------------|----------------------|
B|-----1-----1---------------|----------------|-----1-----1---------------|----------------1-----|
G|--------2-----(2p0)--0-----|-----0--2--(2)--|--------2-----(2p0)--0-----|-----0--2--(2)-----2--|
D|------------------------3--|--3-------------|--0---------------------3--|--3-------------------|
A|----------------x----------|------------x---|----------------x----------|------------x---------|
E|--1-------------x----------|------------x---|----------------x----------|------------x---------|
     C
e|------0-------------0------------|---0-------------0---|
B|-----(1)-----1-----(1)--1--------|--(1)-----1-----(1)--|
G|--0---0---------0---0------2--0--|---0---------0---0---|
D|---------------------------------|---------------------|
A|--3---x---3---------x---------3--|---x---3---------x---|
E|------x-------------x------------|---x-------------x---|
    F                                             Dm
e|---------------------------|----------------|---------------------------|----------------------|
B|-----1-----1---------------|----------------|-----1-----1---------------|----------------1-----|
G|--------2-----(2p0)--0-----|-----0--2--(2)--|--------2-----(2p0)--0-----|-----0--2--(2)-----2--|
D|------------------------3--|--3-------------|--0---------------------3--|--3-------------------|
A|----------------x----------|------------x---|----------------x----------|------------x---------|
E|--1-------------x----------|------------x---|----------------x----------|------------x---------|
     C
e|------0-------------0------------|---0-------------0---|
B|-----(1)-----1-----(1)--1--------|--(1)-----1-----(1)--|
G|--0---0---------0---0------2--0--|---0---------0---0---|
D|---------------------------------|---------------------|
A|--3---x---3---------x---------3--|---x---3---------x---|
E|------x-------------x------------|---x-------------x---|

[Bridge] 42:17 

     F                              Dm                              C (barre)
e|-----3/5--3-----1--------------|-----3/5--3-----1--------------|-----3h5--3---------------------|
B|----------------------1-----1--|----------------------1-----1--|-----------------6--------------|
G|-------------------------------|-------------------------------|-----------------------5-----5--|
D|-------------------------------|--0----------0-----0-----0-----|--------------------------------|
A|-------------------------------|-------------------------------|--3----------3------3-----3-----|
E|--1----------1-----1-----1-----|-------------------------------|--------------------------------|
      strum: DDUD DU
    C
e|--------------------|
B|--5--5--5--5--5--5--|
G|--5--5--5--5--5--5--|
D|--5--5--5--5--5--5--|
A|--3--3--3--3--3--3--|
E|--------------------|
[Riff]
e|--------------|-----------3--5--|
B|--------------|--3--5--6--------|
G|--3--2--3--5--|-----------------|
D|--------------|-----------------|
A|--------------|-----------------|
E|--------------|-----------------|
     F                                Dm                               C (barre)
e|-----3/5--3-----1-----------3/5--|-----3/5--3-----1-----------3/5--|-----3h5--3---------------------|
B|----------------------1----------|----------------------1----------|-----------------6--------------|
G|---------------------------------|---------------------------------|-----------------------5-----5--|
D|---------------------------------|--0----------0-----0-----0-------|--------------------------------|
A|---------------------------------|---------------------------------|--3----------3------3-----3-----|
E|--1----------1-----1-----1-------|---------------------------------|--------------------------------|
    C   strum: DDUD DUD DUD
e|-------------------------|
B|--5-5-5-5--5-5-5--5-5-5--|
G|--5-5-5-5--5-5-5--5-5-5--|
D|--5-5-5-5--5-5-5--5-5-5--|
A|--3-3-3-3--3-3-3--3-3-3--|
E|-------------------------|

********************************************
| x Dead note/slap
| p Pull off
| / Slide up
| h Hammer on
| ( ) strum the string with the middle finger
**********************************************

            
            
Suggest correction
Creating personal tab
Creating personal tab
You can edit any tab online and save it as your Personal.

You can edit, replace or remove any tab part or add personal notes – all changes will be seen only by you.

Personal tabs can be accessed anytime from any device, even offline.
Learn more »
comments
print report bad tab
guest
You may want to rate the tab now too:
select rating
Wanna post a correction for this tab? Suggest correction