Oops, an error
Loading. Please wait.

Sweet Creature chords

version 2
version 2

Whole song

  • Corrected chords from version 1 (G/B, not Bm), def... Show more
  • More complete version with picking patterns.
  • You can replace Cadd9 with Csus2 if easier.
  • Can be played either as a tab or chord progression, improved chords and timing.

Interactive

32,290 views 876 this week
1 commentread comment
1 2 3 4 5
x 15
add to favorites
×
Save as Personal and add changes to this tab that will be seen only by you. Learn more ›
×
You can save this tab as Personal to edit and correct it or add notes. All changes will be seen only by you. Learn more »
launch autoscroll
font size
0
reset
transpose
0
reset
simplify chords
display chords
guitar tuner
edit
Autoscroll
slow
fast
+/-
esc
set tempo
stop
About this tab version
Corrected chords from version 1 (G/B, not Bm), defined fingerpicking for all sections. Was this info helpful? Yes No
Strumming
There is no strumming pattern for this song yet. and get +5 IQ
(For fingerpicking details, scroll to bottom or search for “Sweet Creature tab”)


Verse           Pre-Chorus        Chorus          Bridge
-----------     -------------     -----------     -------------
G    32000x     Am     x0221x     G    32000x     Gmaj7  32400x
C    x32010     Em     02200x     C    x32010     Esus2  02400x
G/B  x2003x     G      32000x     G/B  x2003x  
Em   022003     Dsus2  xx0230     Am7  x0201x
D    xx0232                       D7   xx0212


[Intro]

G  C  G/B
G  C  G/B
G  C  G/B
G


[Verse 1]

G  C  G/B G  
Sweet creature
Em          D          C                G  
Had another talk about where it's going wrong
    G  C  G/B   G
But we're still young
   Em                     D            C               G 
We don't know where we're going but we know where we belong


[Pre-Chorus 1]

Am     Em           G             Dsus2
No, we started, two hearts in one home
     Am           Em                G            Dsus2
It's hard when we argue, we're both stubborn I know


[Chorus 1]

    G   
But oh
C     G/B G     C     G/B G
Sweet creature, sweet creature
C      G/B  Am7  G  D7
Where--ev---er   I  go
             G
You bring me home
C     G/B G     C     G/B G
Sweet creature, sweet creature
     C  G/B  Am7  G  D7
When I  run  out  of rope
N.C.         G    C  G/B  G
You bring me home
            (ooooooooooh, ooooh)    

[Verse 2]

G  C  G/B G  
Sweet creature
      Em                  D                C                G
We're running through the garden, oh where nothing bothered us
    G  C  G/B   G
But we're still young
  Em            D                C               G
I always think about you and how we don't speak enough


[Pre-Chorus 2]

Am     Em           G             Dsus2
No, we started, two hearts in one home
    Am                    Em                G          Dsus2
And oh, it’s hard when we argue, we're both stubborn I know


[Chorus 2]

    G   
But oh
C     G/B G     C     G/B G
Sweet creature, sweet creature
C      G/B  Am7  G  D7
Where--ev---er   I  go
             G
You bring me home
C     G/B G     C     G/B G
Sweet creature, sweet creature
     C  G/B  Am7  G  D7
When I  run  out  of rope
N.C.        (Gmaj7)
You bring me home


[Bridge]

Gmaj7  Gmaj7  Gmaj7  Gmaj7
Ooooh, ooooh, ooooh, ooooh
Esus2  Esus2  Esus2  Esus2  
Ooooh, ooooh, ooooh, ooooh


[Pre-Chorus 3]

  Am           Em                G             Dsus2
I know when we started, just two hearts in one home
        Am             Em                G          Dsus2
It gets harder when we argue, we're both stubborn I know


[Chorus 3]

    G   
But oh
C     G/B G     C     G/B G
Sweet creature, sweet creature
C      G/B  Am7  G  D7
Where--ev---er   I  go
             G
You bring me home
C     G/B G     C     G/B G
Sweet creature, sweet creature
     C  G/B  Am7  G  D7
When I  run  out  of rope
N.C.         G    C  G/B  Am7  G  D7
You bring me home
             Gmaj7  Gmaj7  Gmaj7  Gmaj7
You bring me home
            (ooooh, ooooh, ooooh, ooooh)


-----------------------------------------------------------------------------
                              Fingerpicking
-----------------------------------------------------------------------------


[Intro]

    G                 C       G/B              G               
e|-----------------|-----------------|     e|-----------------|
B|--0---------0----|--5-------3------|     B|--0--------0-----|
G|-----------------|------0-------0--|     G|-----------------|  
D|--------0--------|-----------------|x3   D|--------0--------|x2
A|-----------------|--3-------2------|     A|-----------------|
E|--3---3---3---3--|-----------------|     E|--3---3---3---3--|


[Verse]

    G                 C       G/B       G                 
e|-----------------|-----------------|-----------------|-----------------| | 
B|--0---------0----|--5-------3------|--0--------0-----|--0--------0-----| |
G|-----------------|------0-------0--|-----------------|-----------------| |
D|--------0--------|-----------------|--------0--------|--------0--------| |
A|-----------------|--3-------2------|-----------------|-----------------| |
E|--3---3---3---3--|-----------------|--3---3---3---3--|--3---3---3---3--| |
                                                                           |x2
    Em                D                 C                 G                |
e|-----------------|-----------------|-----------------|-----------------| |
B|--8---------8----|--7---------7----|--5---------5----|--0---------0----| |
G|--------0--------|--------0--------|--------0--------|-----------------| |
D|-----------------|-----------------|-----------------|--------0--------| |
A|--7---7---7---7--|--5---5---5---5--|--3---3---3---3--|-----------------| |
E|-----------------|-----------------|-----------------|--3---3---3---3--| |


[Pre-Chorus]

    Am                                  Em
e|-----------------|--0--------------|-------------0---|-----------------| | 
B|0h1---------1----|------------1----|--0--------------|--0----------0---| |
G|--------2--------|--------2--------|--------0--------|--------0--------| |
D|-----------------|-----------------|-----------------|-----------------| |
A|--0---0---0---0--|--0---0---0---0--|-----------------|-----------------| |
E|-----------------|-----------------|--0---0---0---0--|--0---0---0---0--| |
                                                                           |x2
    G                                   Dsus2                              | 
e|-----------------|-----------------|-----------------|--0--------------| |
B|--0---------0----|--0---------0----|--3---------3----|------------3----| |
G|-----------------|-----------------|--------2--------|--------2--------| |
D|--------0--------|--------0--------|--0---0---0---0--|--0---0---0---0--| |
A|-----------------|-----------------|-----------------|-----------------| |
E|--3---3---3---3--|--3---3---3---3--|-----------------|-----------------| |


[Chorus]

    G                 C       G/B       G                 C       G/B                    
e|-----------------|-----------------|-----------------|-----------------| |
B|--0---------0----|--5-------3------|--0---------0----|--5-------3------| |
G|-----------------|------0-------0--|-----------------|------0-------0--| |
D|--------0--------|-----------------|--------0--------|-----------------| |
A|-----------------|--3-------2------|-----------------|--3-------2------| |
E|--3---3---3---3--|-----------------|--3---3---3---3--|-----------------| |
                                                                           |x2
    G                 C       G/B       Am7     G         D7               |    
e|-----------------|-----------------|-----------------|--2--------------| |
B|--0---------0----|--5-------3------|--1-------0------|------------1----| |
G|-----------------|------0-------0--|------0-------0--|--------2--------| |
D|--------0--------|-----------------|-----------------|--0---0---0---0--| |
A|-----------------|--3-------2------|--0--------------|-----------------| |
E|--3---3---3---3--|-----------------|----------3------|-----------------| |


[Bridge]

    Gmaj7           
e|-----------------|-----------------|-----------------|-----------------| 
B|-----------------|--0--------------|-----------------|--0--------------|
G|--------0--------|----------0------|--------0--------|-----------------| 
D|--0h4-------0----|------4-------4--|--0h4-------0----|-----------------|
A|-----------------|-----------------|-----------------|-----------------|
E|--3---3---3---3--|--3-------3------|--3---3---3---3--|--3---3---3---3--|

    Esus2           
e|-----------------|-----------------|-----------------|-----------------|
B|-----------------|--0--------------|-----------------|--0--------------|
G|--------0--------|----------0------|--------0--------|-----------------| 
D|--0h4-------0----|------4-------4--|--0h4-------0----|-----------------|
A|-----------------|-----------------|-----------------|-----------------|
E|--0---0---0---0--|--0-------0------|--0---0---0---0--|--0---0---0---0--|



            
            
Suggest correction
Creating personal tab
Creating personal tab
You can edit any tab online and save it as your Personal.

You can edit, replace or remove any tab part or add personal notes – all changes will be seen only by you.

Personal tabs can be accessed anytime from any device, even offline.
Learn more »
comments
print report bad tab
1 comment total.
0 reply
Reagan8803 10 Aug 25, 2017 06:10 PM

great tab!

guest
You may want to rate the tab now too:
select rating
Wanna post a correction for this tab? Suggest correction