Oops, an error
Loading. Please wait.

Sweet Creature Acoustic chords

version 5
version 5

Whole song

  • Corrected chords from version 1 (G/B, not Bm), def... Show more
  • More complete version with picking patterns.
  • You can replace Cadd9 with Csus2 if easier.
  • Can be played either as a tab or chord progression, improved chords and timing.

Interactive

1,546 views 48 this week
1 commentread comment
1 2 3 4 5
3 more votes to show rating
add to favorites
×
Save as Personal and add changes to this tab that will be seen only by you. Learn more ›
×
You can save this tab as Personal to edit and correct it or add notes. All changes will be seen only by you. Learn more »
launch autoscroll
font size
0
reset
transpose
0
reset
simplify chords
display chords
guitar tuner
edit
Autoscroll
slow
fast
+/-
esc
set tempo
stop
About this tab version
Can be played either as a tab or chord progression, improved chords and timing. Was this info helpful? Yes No
Strumming
There is no strumming pattern for this song yet. and get +5 IQ
Based off of this lesson: https://www.youtube.com/watch?v=rLRGcJA0dpE

Chords:
    Intro:          G  C  G/B  G
    Verse:          G  C  G/B  G  G  Em  D  * C  G7
    Pre-Chorus:     Am  * Em  G  D
    Chorus:         G  C  G/B  G  x3  C  G/B  D
    Bridge:         G  Em

Plucking Pattern for each chords (Note: this is set for no transposes, if you
transpose you must adjust the picking patter):
G:
e|-----------------|
B|--0----------0---|
G|---------0-------|
D|------0----------|
A|-----------------|
E|--3--------3-----|

G7:
e|-----------------|
B|--3----------3---|
G|---------0-------|
D|------0----------|
A|-----------------|
E|--3--------3-----|

C:
e|-----------------|
B|--5--------------|
G|------0----------|
D|-----------------|
A|--3--------------|
E|-----------------|

G/B:
e|-----------------|
B|--3--------------|
G|------0----------|
D|-----------------|
A|--2--------------|
E|-----------------|

Em:
e|--3---------3----|
B|---------0-------|
G|------0----------|
D|-----------------|
A|-----------------|
E|--0---------0----|

D:
e|--2------------2-|
B|---------3-------|
G|-----2-----------|
D|--0---------0----|
A|-----------------|
E|-----------------|

*C:
e|--0----------0---|
B|--------1--------|
G|-----0-----------|
D|--3-------3------|
A|-----------------|
E|-----------------|

Am:
e|-----------------|
B|--1-----------1--|
G|---------0-------|
D|------2----------|
A|--0---------0----|
E|-----------------|

*Em:
e|-----------------|
B|--0----------0---|
G|--------0--------|
D|-----1-----------|
A|-----------------|
E|--0-------0------|

[Intro]
G  C  G/B  G  x2

[Verse 1]
G   C  G/B   G        G
Sweet creature
Em          D            * C               G7
Had another talk about where it's going wrong
G      C   G/B   G       G
But we're still young
Em                   D
We don't know where we're going
    * C               G
But we know where we belong

[Pre-Chorus]
 Am      * Em
Oh, we started
     G          D
Two hearts in one home
    Am           * Em
It's hard when we argue
     G
We're both stubborn
    D
I know, but oh

[Chorus]
G  C  G/B  G    G  C  G/B  G
Sweet creature, sweet creature
G  C  G/B  G   C     G/B     D
Wherever I go, you bring me home
G  C  G/B  G    G  C  G/B  G
Sweet creature, sweet creature
 G   C     G/B      G     C    G/B    D
When I run out of road, you bring me home

[Verse 2 - Same as Verse 1]
G   C  G/B   G        G
Sweet creature
Em          D            * C               G7
We're running through the garden
G      C   G/B   G       G
Oh, where nothing bothered us
Em                   D
But we're still young
    * C               G
I always think about you and how we don't speak enough

[Pre-Chorus]
 Am     * Em
Oh, we started
     G          D
Two hearts in one home
    Am           * Em
I know it's hard, we argue
     G
We're both stubborn
    D
I know, but oh

[Chorus]
G  C  G/B  G    G  C  G/B  G
Sweet creature, sweet creature
G  C  G/B  G   C     G/B     D
Wherever I go, you bring me home
G  C  G/B  G    G  C  G/B  G
Sweet creature, sweet creature
 G   C     G/B      G     C    G/B    D
When I run out of road, you bring me home

[Bridge]
G  Em

[Chorus]
G  C  G/B  G    G  C  G/B  G
Sweet creature, sweet creature
G  C  G/B  G   C     G/B     D
Wherever I go, you bring me home
G  C  G/B  G    G  C  G/B  G
Sweet creature, sweet creature
 G   C     G/B      G     C    G/B    D
When I run out of road, you bring me home
                 D
You'll bring me home

            
            
Suggest correction
Creating personal tab
Creating personal tab
You can edit any tab online and save it as your Personal.

You can edit, replace or remove any tab part or add personal notes – all changes will be seen only by you.

Personal tabs can be accessed anytime from any device, even offline.
Learn more »
Give kudos to tab author, rate the tab!
1 2 3 4 5
comments
print report bad tab
1 comment total.
0 reply
Joaquinakiwi 20 Jul 22, 2017 09:05 PM

beautiful thank you!

guest
You may want to rate the tab now too:
select rating
Wanna post a correction for this tab? Suggest correction